PrimaNota.ru - самый крупный в мире бесплатный архив песенных текстов, аккордов, табулатур и нот


Twin Atlantic - Edit Me - таба, видео

Регистрация Запомнить меня
Войти через:  Facebook Google Twitter Vk Yandex Mail.ru

Twin Atlantic - Edit Me - таба, видео

Печатать
Просмотров: 78
Twin Atlantic - Edit Me

Intro/Chorus:
Dmin|F|G| X6

Verse:
|-------------------|
|-------------------|
|-------------------|
|0-4-9-5--0-4-9-7---|
|0-4-9-5--0-4-9-7---|
|0-4-9-5--0-4-9-7---|
|D F#B G   D F#B A  |

|--------|----------------|
|--------|----------------|
|--------|----------------|
|9-7-7-4-|9-5-4-7--9-5-3-5|
|9-7-5-4-|9-5-4-7--9-5-3-5|
|9-7---4-|9-5-4-7--9-5-3-5|
|B A D F#|B G F#A  B G E G!
|        |       x2       |
Добавлено: 21.06.2013
Другие материалы по этой песне:
  • Аккорды и текст

Страница создана 21.06.2013
http://primanota.ru/twin-atlantic/edit-me-chords.htm
Привет, Гость.
Предлагаем пройти революционный курс по гитаре.
Подарок от PrimaNota.Ru, забирай!