PrimaNota.ru - самый крупный в мире бесплатный архив песенных текстов, аккордов, табулатур и нот


Twierdza - Nasza Tozsamosc - таба, видео

Регистрация Запомнить меня
Войти через:  Facebook Google Twitter Vk Yandex Mail.ru

Twierdza - Nasza Tozsamosc - таба, видео

Печатать
Просмотров: 104
-------------------------------------------------------------------------------
                             Nasza Tozsamosc - Twierdza
-------------------------------------------------------------------------------
Tabbed by: kotnr, jockerthc

Tuning: EADGBE


Main Riff:
e|-----------------------------------|-----------------------------------|
B|----------1---------------1--------|----------1---------------1--------|
G|--------------0-------2-------0----|--------------0---------------0----|
D|------2-----------3----------------|------2---------------0------------|
A|--0--------------------------------|--3---------------2----------------|
E|-----------------------------------|-----------------------------------|


e|-----------------------------------|-----------------------------------|
B|----------1---------------1--------|----------1---------------1--------|
G|--------------0-------2-------0----|--------------0---------------0----|
D|------2-----------3----------------|------2---------------0------------|
A|--0--------------------------------|--3---------------2----------------|
E|-----------------------------------|-----------------------------------|
                                   

Solo:
e|-----------------------------------|-10--12--12b--10------------------|
B|---10------10--12--13--12--10--8---|-------------------13---12-10-8---|
G|-----------------------------------|----------------------------------|
D|-----------------------------------|----------------------------------|
A|-----------------------------------|----------------------------------|
E|-----------------------------------|----------------------------------|


e|-----------------------------------|--12-10-----10--------------------|
B|---10------10--12--13--12--10--8---|--------13-------13----12----10---|
G|-----------------------------------|----------------------------------|
D|-----------------------------------|----------------------------------|
A|-----------------------------------|----------------------------------|
E|-----------------------------------|----------------------------------|


Добавлено: 12.04.2015
Другие материалы по этой песне:
  • Аккорды и текст

Страница создана 12.04.2015
http://primanota.ru/twierdza/nasza-tozsamosc-chords.htm
Привет, Гость.
Предлагаем пройти революционный курс по гитаре.
Подарок от PrimaNota.Ru, забирай!