PrimaNota.ru - самый крупный в мире бесплатный архив песенных текстов, аккордов, табулатур и нот


Twelve Tribes - Strings - таба, видео

Регистрация Запомнить меня
Войти через:  Facebook Google Twitter Vk Yandex Mail.ru

Twelve Tribes - Strings - таба, видео

Печатать
Просмотров: 64
TWELVE TRIBES - STRINGS

    d|-------------------------------------|
    A|-------------------------------------|
GTR F|-------------------------------------|
1+2 C|-----------------5*--------7---------|
    G|-000--5*----000-------000--8----0000-|
    C|-000--------000-------000-------0000-|
       P M        P M       P M       PMPM

    d|------------------------------------------|
    A|------------------------------------------|
GTR F|-------------------------------------10---|
1+2 C|-----------------5*--------7---------7----| x2
    G|-000--5*----000-------000--8----000--8----|
    C|-000--------000-------000-------000-------|
       P M        P M       P M       P M

    d|--------|
    A|--------|
GTR F|--------|
1+2 C|--------|
    G|-0000-0-|
    C|-0000-0-|
       PMPMPM

    d|---------------------|
    A|---------------------|
GTR F|-8--7----------------|
1+2 C|-6--5----------------| x8
    G|-6--5---1-0-0-1-0000-|
    C|--------1-0-0-1-0000-|
                P M   PMPM

    d|--------------------------------|
    A|--------------------------------|
GTR F|-10--9--7--8--6--7--5--6--------|
1+2 C|-7---7--7--6--6--5--5--4--------|
    G|-7---7--5--6--4--5--3--4--0-0-0-|
    C|-7---7--5--6--4--5--3--4--0-0-0-|
                                PMPMPM

    d|---------------------|
    A|---------------------|
GTR F|-8--7----------------|
1+2 C|-6--5----------------| x4
    G|-6--5---1-0-0-1-0000-|
    C|--------1-0-0-1-0000-|
                P M   PMPM

    d|----------------------------|
    A|----------------------------|
GTR F|-10--9--7--8--6--7--5--6----|
1+2 C|-7---7--7--6--6--5--5--4----|
    G|-7---7--5--6--4--5--3--4--0-|
    C|-7---7--5--6--4--5--3--4--0-|
                                PM

    d|-------------|
    A|-------------|
GTR F|-10-9--------|
 1  C|------10-8---|
    G|-----------9-|
    C|-------------|

    d|-------------|
    A|-------------|
GTR F|-------------|
 2  C|-10-9--------|
    G|------10-8---|
    C|-----------7-|

    d|----------------------------|
    A|----------------------------|
GTR F|-7/8-7-8-10-----------------|
 1  C|-7/8-7-8-10-----------------| 1,3
    G|-5/6-5-6-8------------------|
    C|-5/6-5-6-8------------------|

    d|----------------------------|
    A|----------------------------|
GTR F|----------------------------|
 2  C|------------------4p3---3p2-| 1,3
    G|----------------5-----5-----|
    C|----------------------------|

    d|----------------------------|
    A|----------------------------|
GTR F|-7/8-7-8-10-----------------|
 1  C|-7/8-7-8-10-----------------| 2,4
    G|-5/6-5-6-8------------------|
    C|-5/6-5-6-8------------------|

    d|----------------------------|
    A|----------------------------|
GTR F|----------------------7/10--|
 2  C|------------------4p3-------| 2,4
    G|----------------5-----5/8---|
    C|----------------------------|

    d|-----------------------------------------------|
    A|-----------------------------------------------|
GTR F|-7/8-7-8-10------------------------------------|
 1  C|-7/8-7-8-10------------------------------------| 5
    G|-5/6-5-6-8-----3-3-3-3-3-3-3-3-3-3-3-3-3-3-3-3-|
    C|-5/6-5-6-8-----3-3-3-3-3-3-3-3-3-3-3-3-3-3-3-3-|
                     P M P M P M P M P M P M P M P M

    d|------------------------------------------------|
    A|------------------------------------------------|
GTR F|---------------10101010101010101414141414141414-|
 2  C|------------------------------------------------| 5
    G|---------------8-8-8-8-8-8-8-8-1212121212121212-|
    C|------------------------------------------------|

    d|----------------10-\-7-------------------|
    A|-----------------------------------------|
GTR F|-6h7h9-11p9p7h9--------6h7h9p7-7h9p6-6-6-|
 1  C|-----------------------------------------|
    G|-----------------------------------------|
    C|-----------------------------------------|

    d|-----------------------------------------|
    A|-----------------------------------------|
GTR F|-----------------------------------------|
 2  C|-5-5-5-5-5-5-5-5-5-5-5-5-5-5-5-5-5-5-5-5-|
    G|-5-5-5-5-5-5-5-5-5-5-5-5-5-5-5-5-5-5-5-5-|
    C|-5-5-5-5-5-5-5-5-5-5-5-5-5-5-5-5-5-5-5-5-|

    d|---------------------------------------------|
    A|-1010101010-1212121212-1010101010-1515151515-|
GTR F|-9-9-9-9-9--1111111111-9-9-9-9-9--1414141414-|
 1  C|-7-7-7-7-7--9-9-9-9-9--7-7-7-7-7--1212121212-|
    G|---------------------------------------------|
    C|---------------------------------------------|

    d|---------------------------------------------|
    A|-1010101010-1212121212-1010101010-7-7-7-7-7--|
GTR F|-9-9-9-9-9--1111111111-9-9-9-9-9--7-7-7-7-7--|
 2  C|-7-7-7-7-7--9-9-9-9-9--7-7-7-7-7--4-4-4-4-4--|
    G|---------------------------------------------|
    C|---------------------------------------------|

    d|------------------------------|
    A|------------------------------|
GTR F|-7---7h9-6-----6--7-7h9-7-7-7-|
 1  C|-----------7p5----------5-5-5-|
    G|------------------------5-5-5-|
    C|------------------------5-5-5-|

    d|-------------------------------|
    A|-------------------------------|
GTR F|-------------------------------|
 2  C|-5-5-5-5-5-5-5-5-5-5-5-5-5-5-5-|
    G|-5-5-5-5-5-5-5-5-5-5-5-5-5-5-5-|
    C|-5-5-5-5-5-5-5-5-5-5-5-5-5-5-5-|

    d|----------------10-\-7-------------------|
    A|-----------------------------------------|
GTR F|-6h7h9-11p9p7h9--------6h7h9p7-7h9p6-6-6-|
 1  C|-----------------------------------------|
    G|-----------------------------------------|
    C|-----------------------------------------|

    d|-----------------------------------------|
    A|-----------------------------------------|
GTR F|-----------------------------------------|
 2  C|-5-5-5-5-5-5-5-5-5-5-5-5-5-5-5-5-5-5-5-5-|
    G|-5-5-5-5-5-5-5-5-5-5-5-5-5-5-5-5-5-5-5-5-|
    C|-5-5-5-5-5-5-5-5-5-5-5-5-5-5-5-5-5-5-5-5-|

    d|---------------------------------------------|
    A|-1010101010-1212121212-1010101010-1515151515-|
GTR F|-9-9-9-9-9--1111111111-9-9-9-9-9--1414141414-|
 1  C|-7-7-7-7-7--9-9-9-9-9--7-7-7-7-7--1212121212-|
    G|---------------------------------------------|
    C|---------------------------------------------|

    d|---------------------------------------------|
    A|-1010101010-1212121212-1010101010-7-7-7-7-7--|
GTR F|-9-9-9-9-9--1111111111-9-9-9-9-9--7-7-7-7-7--|
 2  C|-7-7-7-7-7--9-9-9-9-9--7-7-7-7-7--4-4-4-4-4--|
    G|---------------------------------------------|
    C|---------------------------------------------|

    d|----------------------------------------|
    A|-------------------------------9-9--9-9-|
GTR F|-7-7--7-7--7-7--7-7--7-7--7-7--7-7--7-7-|
 1  C|-5-5--5-5--5-5--5-5--5-5--5-5--5-5--5-5-|
    G|-5-5--5-5--5-5--5-5--5-5--5-5--5-5--5-5-|
    C|-5-5--5-5--5-5--5-5--5-5--5-5--5-5--5-5-|

    d|---------------------------------------|
    A|---------------------------------------|
GTR F|---------------------------------------|
 2  C|-5-5-5-5-5-5-5-5-5-5-5-5-5-5-5-5-5-5-5-|
    G|-5-5-5-5-5-5-5-5-5-5-5-5-5-5-5-5-5-5-5-|
    C|-5-5-5-5-5-5-5-5-5-5-5-5-5-5-5-5-5-5-5-|

    d|----------------------------------------|
    A|-------------------------------9-9--9-9-|
GTR F|-7-7--7-7--7-7--7-7--7-7--7-7--7-7--7-7-|
 1  C|-5-5--5-5--5-5--5-5--5-5--5-5--5-5--5-5-|
    G|-5-5--5-5--5-5--5-5--5-5--5-5--5-5--5-5-|
    C|-5-5--5-5--5-5--5-5--5-5--5-5--5-5--5-5-|

    d|-------------------------------------------------|
    A|-------------------------------------------------|
GTR F|-6h7----6h7----6h7----6h7---6h7----6h7----6h7----|
 2  C|-------------------------------------------------|
    G|-------------------------------------------------|
    C|-------------------------------------------------|

    d|-------------------------------------------------------------|
    A|----------15----------------------------15-------------------|
GTR F|-12p11h12----12p11-12p11----11-12p11h12----12p11-12p11----11-|
 1  C|-------------------------12----------------------------12----|
    G|-------------------------------------------------------------|
    C|-------------------------------------------------------------|

    d|---------------------------------------------|
    A|-1515151515-1717171717-1515151515-1818181818-|
GTR F|-1414141414-1616161616-1414141414-1717171717-|
 2  C|-1212121212-1414141414-1212121212-1515151515-|
    G|---------------------------------------------|
    C|---------------------------------------------|

    d|----------------------------------------|
    A|-------------------------------9-9--9-9-|
GTR F|-7-7--7-7--7-7--7-7--7-7--7-7--7-7--7-7-|
 1  C|-5-5--5-5--5-5--5-5--5-5--5-5--5-5--5-5-| x2
    G|-5-5--5-5--5-5--5-5--5-5--5-5--5-5--5-5-|
    C|-5-5--5-5--5-5--5-5--5-5--5-5--5-5--5-5-|

    d|-------------------------------------------------|
    A|-------------------------------------------------|
GTR F|-6h7----6h7----6h7----6h7---6h7----6h7----6h7----|
 2  C|-------------------------------------------------| x2
    G|-------------------------------------------------|
    C|-------------------------------------------------|

    d|-------------------------------------------------------------|
    A|----------15----------------------------15-------------------|
GTR F|-12p11h12----12p11-12p11----11-12p11h12----12p11-12p11----11-|
 1  C|-------------------------12----------------------------12----|
    G|-------------------------------------------------------------|
    C|-------------------------------------------------------------|

    d|---------------------------------------------|
    A|-1515151515-1717171717-1515151515-1818181818-|
GTR F|-1414141414-1616161616-1414141414-1717171717-|
 2  C|-1212121212-1414141414-1212121212-1515151515-|
    G|---------------------------------------------|
    C|---------------------------------------------|

    d|----------------------------------------|
    A|-------------------------------9-9--9-9-|
GTR F|-7-7--7-7--7-7--7-7--7-7--7-7--7-7--7-7-|
 1  C|-5-5--5-5--5-5--5-5--5-5--5-5--5-5--5-5-|
    G|-5-5--5-5--5-5--5-5--5-5--5-5--5-5--5-5-|
    C|-5-5--5-5--5-5--5-5--5-5--5-5--5-5--5-5-|

    d|-------------------------------------------------|
    A|-------------------------------------------------|
GTR F|-6h7----6h7----6h7----6h7---6h7----6h7----6h7----|
 2  C|-------------------------------------------------|
    G|-------------------------------------------------|
    C|-------------------------------------------------|

    d|----------|
    A|-------15-|
GTR F|-12p11----|
 1  C|----------| x9
    G|----------|
    C|----------|

    d|-----------------------------------------------------------------|
    A|-----------------------------------------------------------------|
GTR F|-7777-9999-11111111-12121212-14141414-16161616-18181818-19191919-|
 2  C|-----------------------------------------------------------------|
    G|-5555-7777-9-9-9-9--10101010-12121212-14141414-16161616-17171717-|
    C|-----------------------------------------------------------------|

    d|-------------|
    A|-------------|
GTR F|-5/7-4/5---2-|
1+2 C|-5/7-4/5-0-2-|
    G|-3/5-2/3-0-0-|
    C|-3/5-2/3-0-0-|

    d|-------------|
    A|-------------|
GTR F|-5/7---4--2--|
1+2 C|-5/7-0-4--2--| x3
    G|-3/5-0-2--0--|
    C|-3/5-0-2--0--|

    d|-------------------------------|
    A|-------------------------------|
GTR F|-------------------------------|
1+2 C|-5-5-5-4-4-4-4-2-2-2-2-2-2-2-2-| x4
    G|-3-3-3-2-2-2-2-0-0-0-0-0-0-0-0-|
    C|-3-3-3-2-2-2-2-0-0-0-0-0-0-0-0-|
       P M P M P M P M P M P M P MPM

    d|-------------|
    A|-------------|
GTR F|-5/7---4--2--|
 1  C|-5/7-0-4--2--| 1,2,4
    G|-3/5-0-2--0--|
    C|-3/5-0-2--0--|

    d|----------------|
    A|----------------|
GTR F|-10/12-12/14--9-|
 2  C|----------------| 1,2,4
    G|-8-/10-10/12--7-|
    C|----------------|

    d|-------------|
    A|-------------|
GTR F|-5/7---4--2--|
 1  C|-5/7-0-4--2--| 3
    G|-3/5-0-2--0--|
    C|-3/5-0-2--0--|

    d|----------------------|
    A|----------------------|
GTR F|-10/12-12\10\9-10-9-9-|
 2  C|----------------------| 3
    G|-8-/10-10\8-\7-8--7-7-|
    C|----------------------|

    d|-------------------------------------------------|
    A|---10-10-10-10-10-10-10-10-10\9--9-\7--7-\6--6\4-|
GTR F|---13-13-13-13-13-13-13-13-13\12-12\10-10\9--9\7-|
 1  C|-------------------------------------------------| 1,3
    G|-0-12-12-12-12-12-12-12-12-12\11-11\9--9-\8--8\6-|
    C|-0------0-----0-----0-----0-----0------0----0----|
      PM     PM    PM    PM    PM    PM     PM   PM 

    d|------------------------------------------|
    A|------------------------------------------|
GTR F|------------------------------------------|
1+2 C|------------------------------------------| 1,3
    G|------------------------------------6-5---|
    C|-0000000000000000000000000000-0-3-4-----3-|    
       PMPMPMPMPMPMPMPMPMPMPMPMPMPM P M P M P M


    d|--------------------------------------------|
    A|---10-10-10-10-10-10-10-10-10\9--9-\7--7-\6-|
GTR F|---13-13-13-13-13-13-13-13-13\12-12\10-10\9-|
 1  C|--------------------------------------------| 2
    G|-0-12-12-12-12-12-12-12-12-12\11-11\9--9-\8-|
    C|-0------0-----0-----0-----0-----0------0----|
      PM     PM    PM    PM    PM    PM     PM    

    d|------------------------------------------|
    A|------------------------------------------|
GTR F|------------------------------------------|
1+2 C|------------------------------------------| 2
    G|------------------------------------6-5---|
    C|-0000000000000000000000000000-0-3-4-----3-|    
       PMPMPMPMPMPMPMPMPMPMPMPMPMPM P M P M P M

    d|-0h1-----1---|
    A|-----1-----1-|
GTR F|-------0-----|
 1  C|-------------| x14
    G|-------------|
    C|-------------|

    d|-------------|
    A|-------------|
GTR F|-------------|
 2  C|-0-----------| x14
    G|-0-----------|
    C|-0-----------|

    d|-0h1-----1---|
    A|-----1-----1-|
GTR F|-------0-----|
 1  C|-------------| x8
    G|-------------|
    C|-------------|

    d|------------------------|
    A|------------------------|
GTR F|-10/12-10/12-14-12-10-9-|
 2  C|------------------------| x4
    G|-8/-10-8-/10-12-10-8--7-|
    C|------------------------|

    d|-0h1-----1---|
    A|-----1-----1-|
GTR F|-------0-----|
 1  C|-------------| x4
    G|-------------|
    C|-------------|

    d|-----------------------------------------------------|
    A|-----------------------------------------------------|
GTR F|-11-171717171717171717171717171717171717171717171717-|
 2  C|-----------------------------------------------------|
    G|-9--151515151515151515151515151515151515151515151515-|
    C|-----------------------------------------------------|
Добавлено: 09.06.2013
Другие материалы по этой песне:
  • Аккорды и текст

Страница создана 09.06.2013
http://primanota.ru/twelve-tribes/strings-chords.htm
Привет, Гость.
Предлагаем пройти революционный курс по гитаре.
Подарок от PrimaNota.Ru, забирай!