PrimaNota.ru - самый крупный в мире бесплатный архив песенных текстов, аккордов, табулатур и нот


Tweedy - Ill Never Know - таба, видео

Регистрация Запомнить меня
Войти через:  Facebook Google Twitter Vk Yandex Mail.ru

Tweedy - Ill Never Know - таба, видео

Печатать
Просмотров: 101
Уроки эстрадного вокала в Санкт-Петербурге
-------------------------------------------------------------------------------
                    I'LL NEVER KNOW - Tweedy
-------------------------------------------------------------------------------
Tabbed by: jvwald

I can't find any live performances of this song so admittedly I'm guessing
that its in standard tuning with no capo. If you know of evidence of anything
that contradicts this, I'd love to see it. There is some variation in the picking
patterns as well but hopefully this is a good place to start.

If you find this tab helpful, check out the other Wilco/Tweedy tabs I've posted.

riff 1
e|--------------------------------------------|
B|----2---3-2-----2--------7\5---5-2---2------|
G|----2---2-2---2---2--------------3-----3----|
D|------2-----2-------2----7\5-5---0-0-----0--|
A|--0--------------------5--------------------|
E|--------------------------------------------|

riff 1 (cont'.)
e|-------------------------------------------------------|
B|----2---3-2-0---0-----0-----2p1p0---------3-----3------|
G|----2---2-2-1-1---1-----1---------1-2---2---2-----2----|
D|------2-----2-------2-----2-------0---4-------4-----4--|
A|--0-------------------------2--------------------------|
E|----------------------------0--------------------------|

riff 2
e|-------------------------------------------|
B|----------------2-------------------2------|
G|----2-----2-------------2-----2------------|
D|----4-4-----4-----4-----3-3-----3-----3----|
A|--4-----4-----4-----4-4-----4-----4-----4--|
E|-------------------------------------------|

riff 2 (cont'.)
e|----0-----0-----0-2------------------|
B|------2-----2------------------------|
G|----2---2-----2-----2-4-----4---4-2--|
D|--------------------4-4-4-----4------|
A|--0-----------------------2----------|
E|-------------------------------------|

riff 1
I remember the room with the TV on and you sitting asleep before you were gone
riff 1
We watched thousands cheer and Lily Mars strike up the band and babes in arms
riff 1
Brush light on the walls crash against the glass and I'd watch your ash fall into your lap

riff 2
I loved to watch the ghosts of cigarette smoke turning lithe and blue
riff 2
And I loved the time we spent alone that you never knew

riff 1
Now I have a room with a TV on I try to stay awake before I'm gone
riff 1
Sometimes I don't but I can feel you there when I'm losing track and I don't react

riff 2
My mothers ghost of cigarette smoke curling calm and blue
riff 2
And I love us being alone in the TV glow when I think you don't know but you do

riff 1

************************************

| /   slide up
| \   slide down
| h   hammer-on
| p   pull-off
| ~   vibrato
| +   harmonic
| x   Mute note
| b   Bend
| pb  Pre-bend
| br  Bend release
| pbr Pre-bend release
| brb Bend release bend

************************************
Добавлено: 18.05.2016
Другие материалы по этой песне:
  • Аккорды и текст

Страница создана 18.05.2016
http://primanota.ru/tweedy/ill-never-know-chords.htm
Привет, Гость.
Предлагаем пройти революционный курс по гитаре.
Подарок от PrimaNota.Ru, забирай!