PrimaNota.ru - самый крупный в мире бесплатный архив песенных текстов, аккордов, табулатур и нот


Tweedy - Flowering - аккорды и текст, видео

Регистрация Запомнить меня
Войти через:  Facebook Google Twitter Vk Yandex Mail.ru

Tweedy - Flowering - аккорды и текст, видео

Печатать
Просмотров: 91
Flowering
Tweedy
----------------------------------------------------------------
                 TWEEDY-FLOWERING
----------------------------------------------------------------
tab by: ignaciomendeznunez
email: ignacio.mendeznunez@gmail.com


D:   xx0232
G/B: x2003x
A:   x02220
Em:  022000

Intro
D      G/B D    repeat x4


D      G/B D
Hold me stranger
D     G/B D
Don't deceive
D    G/B D
Angel master
D    G/B D
Can't retrieve

A        Em
Northern knots
A         Em
Hung high in the trees
A        Em
Spilling oceans
A           Em
Existing to believe


D      G/B D repeat x2


D      G/B D
I told you danger
D      G/B D
Carbon crown
D      G/B D
March through the salt slush
D      G/B D
Howling at the ground

A        Em
Whistle my answer
A        Em
Dance a blank face
A        Em
Torment my sugar
A        Em
And leap at any trace 

A  G/B        D   G/B  D
of Flowering
A  G/B
Flowering

Solo
Em x3
D  G/B D

D      G/B D
Hold me stranger
D      G/B D
Don't deceive
D      G/B D
Angel master
D      G/B D
Can't retrieve

A        Em
Northern knots
A        Em
Hung high in the trees
A        Em
Spilling oceans
A        Em
Existing to believe

A     G/B    D   G/B  D
Flowering               x4


Ending Solo
Em x3
D  G/B D


Riff during Verse
e|------------------------------------------|
b|------------------------------------------|
g|----2-------------------------------------|
d|--4---4-------4--2------------------------|
a|--------------------5---------------------|
E|------------------------------------------|

Riff during Chorus ("Northern Knots")
e|------------------------------------------|
b|------------------------------------------|
g|----2---2---------------------2---2-------|
d|--4---4---4--2--------------4---4---2-----|
a|----------------5--2----------------------|
E|------------------------------------------|
Добавлено: 17.09.2015
Другие материалы по этой песне:
  • Аккорды и текст

Страница создана 17.09.2015
http://primanota.ru/tweedy/flowering-chords.htm
Привет, Гость.
Предлагаем пройти революционный курс по гитаре.
Подарок от PrimaNota.Ru, забирай!