PrimaNota.ru - самый крупный в мире бесплатный архив песенных текстов, аккордов, табулатур и нот


Tweedy - Fake Fur Coat - аккорды и текст, видео

Регистрация Запомнить меня
Войти через:  Facebook Google Twitter Vk Yandex Mail.ru

Tweedy - Fake Fur Coat - аккорды и текст, видео

Печатать
Просмотров: 88
Fake Fur Coat
Tweedy
-------------------------------------------------------------------------------
                    FAKE FUR COAT - Tweedy
-------------------------------------------------------------------------------
Tabbed by: jvwald

This tab is based on this YouTube video:
https://www.youtube.com/watch?v=6ejrDa1t2uE

If you find this tab helpful, check out the other Wilco/Tweedy tabs I've posted.

Tuning: Drop D

D 000232

riff 1
e|-------------------------------------------------|
B|-------------------------------------------------|
G|------0h2-0-------------------0h2-0--------------|
D|--0-0-0---0-4-0-0---0-0-0-0-0-0---0-4-0-0-0-0-0--|
A|--0-0-0---0-0-2-0-0-0-0-0-0-2-0---0-0-2-0-0-0-0--|
D|--0-0-------------4-0-0-0-0-0-------------4-0-0--|

riff 2
e|-------------------------------------------|
B|--------------------------------2-2-2-2-2--|
G|--0h2-0-0-0-------------2-4-2---2-2-2-2-2--|
D|--0---0-0-0-0-0-0-0-0-0-0-0-0-0-2-2-2-2-2--|
A|--0---0-2-0-0-0-0-0-0-2-------0-0-0-0-0-0--|
D|------------4-0-0-0-0----------------------|

intro
riff 1

D
Behold the drift of a distant sun cold as my own heart
riff 2
Blind at the edge of no return every time I dare depart

riff 1

D
I believe the myth may illuminate an anchor in dry weeds
riff 2
At the end of July in a fake fur coat hoping that your heart still needs me

D
I concede there's beauty in bubblegum I'm rolling up my sleeves
riff 2
To advertise the new freedom I accept that I can't receive

riff 1

D
Behold the gift of a distant sun the canyons full of loose bones
riff 2
The metals and brambles and the jack bitch boss thundering down from his thrown

riff 1   riff 2

************************************

| /   slide up
| \   slide down
| h   hammer-on
| p   pull-off
| ~   vibrato
| +   harmonic
| x   Mute note
| b   Bend
| pb  Pre-bend
| br  Bend release
| pbr Pre-bend release
| brb Bend release bend

************************************
Добавлено: 18.05.2016
Другие материалы по этой песне:
  • Аккорды и текст

Страница создана 18.05.2016
http://primanota.ru/tweedy/fake-fur-coat-chords.htm
Привет, Гость.
Предлагаем пройти революционный курс по гитаре.
Подарок от PrimaNota.Ru, забирай!