PrimaNota.ru - самый крупный в мире бесплатный архив песенных текстов, аккордов, табулатур и нот


Tweaker - Slump - таба, видео

Регистрация Запомнить меня
Войти через:  Facebook Google Twitter Vk Yandex Mail.ru

Tweaker - Slump - таба, видео

Печатать
Просмотров: 70
Tweaker - Slump

tabbed by Trixilver
this is my first tab, didn't see it on here so i thought i might as well submit 
it. one of my favorite short instrumentals to rock out to. enjoy!



tuning:
Drop C - CGCFAd

notation:
b - bend
h - hammer on
p - pull off
/ - slide up
\ - slide down



__PART A
0:32-0:53
Soft Distortion
d|---------------------------------------------|
A|---------------------------------------------|
F|---------------------------------------------|
C|-0-7-5-10-----0-7-5-10/12-12-----------------|
G|---------------------------------------------|
C|---------------------------------------------|

x3

d|---------------------------------------------|
A|---------------------------------------------|
F|---------------------------------------------|
C|-0-7-5-10-----0-7-5/12-12\-------------------|
G|---------------------------------------------|
C|---------------------------------------------|



__PART B
1:25-1:47 + 3:12-3:35
Clean
d|---------------------------------------------|
A|----15-----------10/15-----------------------|
F|--------7-10-9----------7-10-12--------------|
C|---------------------------------------------|
G|---------------------------------------------|
C|---------------------------------------------|

d|---------------------------------------------|
A|-10/15--------------15-----------------------|
F|--------7-10-9----------7-10-12--------------|
C|---------------------------------------------|
G|---------------------------------------------|
C|---------------------------------------------|

d|---------------------------------------------|
A|-10/15-----------10/15-----------------------|
F|--------7-10-9----------7-10-12--------------|
C|---------------------------------------------|
G|---------------------------------------------|
C|---------------------------------------------|

d|---------------------------------------------|
A|-10/15---------------------------------------|
F|--------7-10-9-------------------------7b----|
C|-----------------7h9/10-10-10-10h10h10-------|
G|---------------------------------------------|
C|---------------------------------------------|



__PART C
2:08-2:51
Heavy Distortion
d|---------------------------------------------|
A|---------------------------------------------|
F|---------------------------------------------|
C|---------------------------------------------|
G|-0--0-0-0--0-0h10----------3---3h5b-5--------|
C|-0--0-0-0--0-0h10------3h5---5---------------|

d|---------------------------------------------|
A|---------------------------------------------|
F|---------5b-7b-7-----------------------------|
C|-----5b--------------------------------------|
G|-5b------------------------------------------|
C|---------------------------------------------|

x4



finish off with the clean riff (PART B)



end.

let me know if there's anything wrong - trixilver(at)gmail(dot)com
Добавлено: 16.08.2013
Другие материалы по этой песне:
  • Аккорды и текст

Страница создана 16.08.2013
http://primanota.ru/tweaker/slump-chords.htm
Привет, Гость.
Предлагаем пройти революционный курс по гитаре.
Подарок от PrimaNota.Ru, забирай!