PrimaNota.ru - самый крупный в мире бесплатный архив песенных текстов, аккордов, табулатур и нот


Tweaker - Ruby - таба, видео

Регистрация Запомнить меня
Войти через:  Facebook Google Twitter Vk Yandex Mail.ru

Tweaker - Ruby - таба, видео

Печатать
Просмотров: 131
Авторы музыки: Chris Vrenna, Clint Walsh

RUBY
Tweaker

Taken from the Waxploitation album 2 A.M. Wakeup Call (2004)

Transcribed by: Damian Pamminger (TwitcheD_85@hotmail.com)

Standard tuning: E A D G B E

Rhy. Fig. 1a (Acoustic)
|-------5-----------5-----------5---------|
|-----------------------------------------|
|-----------------------------------------|
|-----------------------------------------|
| 0-----------0-----------0---------------|
|-----------------------------------------|

Rhy. Fig. 1b (Acoustic)
|-------5-----------5-----------5-----6--5----4--5------ |
|--------------------------------------------------------|
|--------------------------------------------------------|
|--------------------------------------------------------|
| 0-----------0-----------0------------------------------|
|--------------------------------------------------------|

Rhy. Fig. 2 (Acoustic)
|-0----0-0--0 0----0-0--0 5----5----5----5-5--5-0----0-0--0 0----0-0--0-|
|-3----3-3--3 1----1-1--1 5----5----5----5-5--5-3----3-3--3 1----1-1--1-|
|-2----2-2--2 0----0-0--0 6----6----6----6-6--6-2----2-2--2 0----0-0--0-|
|-0----0-0--0 2----2-2--2 7----7----7----7-7--7-0----0-0--0 2----2-2--2-|
|-------------3----3-3--3 7----7----7----7-7--7-------------3----3-3--3-|
|-------------------------5----5----5----5-5--5-------------------------|

|-5----5----5----0-0--0-0----0-0--0 0----0-0--0 5----5----4----4---|
|-5----5----5----0-0--0-3----3-3--3 1----1-1--1 5----5----4----4---|
|-6----6----6----1-1--1-2----2-2--2 0----0-0--0 6----6----5----5---|
|-7----7----7----2-2--2-0----0-0--0 2----2-2--2 7----7----6----6---|
|-7----7----7----2-2--2-------------3----3-3--3 7----7----6----6---|
|-5----5----5----0-0--0-------------------------5----5----4----4---|

Rhy. Fig. 3a (Dirty Electric)
| ---------------|-----------|---------------- |---------------|-------------|
| ---------------|-----------|---------------- |---------------|-------------|
|-2------2---3--|--REPEAT---|-7--7----7--7---|-2------2---3--|--REPEAT-------|
|-2----------3--|-two-more- |-7--7----7--7--- |-2----------3--|--two-more----|
|-0----0---0-1--|---times---|-5--5----5--5--- |-0----0---0-1--|---times------|
|-0----------1--|-----------|-5--5----5--5--- |-0----------1--|--------------|

|-------------------|
|-------------------|
|-7--7----8--8------|
|-7--7----8--8------|
|-5--5----6--6------|
|-5--5----6--6------|

Rhy. Fig. 3b (Dirty Electric)
| ---------------|-----------|----------------|---------------|------------|
| ---------------|-----------|----------------|---------------|------------|
|-2------2---3--|---REPEAT--| 7--7----8--8---|-2------2---3--|--REPEAT-----|
|-2----------3--|-two-more- |-7--7----8--8---|-2----------3--|-two-more----|
|-0----0---0-1--|---times---|-5--5----6--6---|-0----0---0-1--|---times-----|
|-0----------1--|-----------|-5--5----6--6---|-0----------1--|-------------|

|-------------------|
|-------------------|
|-7--7----7--7------|
|-7--7----7--7------|
|-5--5----5--5------|
|-5--5----5--5------|
Добавлено: 24.07.2012
Другие материалы по этой песне:
  • Аккорды и текст

Страница создана 24.07.2012
http://primanota.ru/tweaker/ruby-chords.htm
Привет, Гость.
Предлагаем пройти революционный курс по гитаре.
Подарок от PrimaNota.Ru, забирай!