PrimaNota.ru - самый крупный в мире бесплатный архив песенных текстов, аккордов, табулатур и нот


Tuxedo - So Good - бас-таба, видео

Регистрация Запомнить меня
Войти через:  Facebook Google Twitter Vk Yandex Mail.ru

Tuxedo - So Good - бас-таба, видео

Печатать
Просмотров: 68
Уроки эстрадного вокала в Санкт-Петербурге
So Good by Tuxedo
From their self-titled debut album
Tabbed by Norman

   (intro)
G|-------------------|-------------------|-------------------|-------------/7-/7-|
D|-------------------|-------------/12---|---------------/12-|-------------------|
A|-------------------|----------------10-|-------------------|10-----------------|
E|-------------------|-------------------|-------------------|-------------------|


   (verse one) 
G|-------------------------------|----------------------------6h7p6-|
D|-------------------------------|------------------7--------------7|
A|-----------------3---3-3-5--5--|--------5p4p0-------3-35----------|
E|33-3535--5/3--3h5---5-5------54|33-3535-------6-5----5----5-------|


   (chorus)
G|-------------5-3-2----------7-----|-------------5-3-2----------7----|
D|----------------------------------|---------------------------------|
A|-------------------------------5--|---------------------------------|
E|3-33-3h5-3-3-------1-3-5---------1|3-33-3h5-3-3-------1-3-5---------|


   (verse two) 
G|-------------------------------|----------------------------6h7p6-|
D|-------------------------------|------------------7--------------7|
A|-----------------3---3-3-5--5--|--------5p4p0-------3-35----------|
E|33-3535--5/3--3h5---5-5------54|33-3535-------6-5----5----5-------|


   (chorus)
G|-------------5-3-2----------7-----|-------------5-3-2----------7----|
D|----------------------------------|---------------------------------|
A|-------------------------------5--|---------------------------------|
E|3-33-3h5-3-3-------1-3-5---------1|3-33-3h5-3-3-------1-3-5---------|


   (verse three) 
G|-------------------------------|----------------------------6h7p6-|
D|-------------------------------|------------------7--------------7|
A|-----------------3---3-3-5--5--|--------5p4p0-------3-35----------|
E|33-3535--5/3--3h5---5-5------54|33-3535-------6-5----5----5-------|


   (bridge)
G|----------------------|---------------------|
D|----------------------|---------------------|
A|------5----------5----|------5--------------|
E|3--5-------3--5-------|3--5-------3----5----|


   (outro)
G|-------------------------------|----------------------------6h7p6-|
D|-------------------------------|------------------7--------------7|
A|-----------------3---3-3-5--5--|--------5p4p0-------3-35----------|
E|33-3535--5/3--3h5---5-5------54|33-3535-------6-5----5----5-------|
Добавлено: 26.06.2016
Другие материалы по этой песне:
  • Аккорды и текст

Страница создана 26.06.2016
http://primanota.ru/tuxedo/so-good-chords.htm
Привет, Гость.
Предлагаем пройти революционный курс по гитаре.
Подарок от PrimaNota.Ru, забирай!