PrimaNota.ru - самый крупный в мире бесплатный архив песенных текстов, аккордов, табулатур и нот


Tutti Frutti Band - Krila Leptira - аккорды и текст, видео

Регистрация Запомнить меня
Войти через:  Facebook Google Twitter Vk Yandex Mail.ru

Tutti Frutti Band - Krila Leptira - аккорды и текст, видео

Печатать
Просмотров: 22
Krila Leptira
Tutti Frutti Band
Intro:
E|--3-----3-2-----2-0-----0-----5-----7-8-----8-7----|
H|------0-------0-------0-----------5-------5--------|
G|----0-------0-------0-----------5-------5----------|
D|--2-------0-------------------7-------7------------|
A|------------------3---------------------------7----|
E|---------------------------------------------------|

E|-2-----3s5-2-0-----0-|
H|-----3-----------0---|
G|---2-----------0-----|
D|-0-----------2-------|
A|---------------------|
E|---------------------|

   Neki  ljudi padnu i opet polete...
   Em7     H       H7      Em      Em7 ..
E|-3-----3-2-----2-2-----2-0-----0-3-----3------------|
H|-----0-------4-------4-------0-------0--------------|
G|---0-------4-------2-------0-------0----------------|
D|-2-------4-------4-------2-------2------------------|
A|----------------------------------------------------|
E|----------------------------------------------------|

Ovo razlaganje ide kroz strofe


 Em7         H      H7    Em
Neki ljudi padnu i opet polete...
Ja bi htio al ne mogu bez tebe....


Refren:
  G         D      Am [H]     Em   
A letio sam nekad, letio i ja...          
  Em       H      H7     Em               
Imao sam krila, krila leptira..  x2


 Em7        H      H7      Em
Imam nesto tuzno, tuzno u meni..
Sto mi neda da ja opet poletim..

Refren:
Solo:

 Em7        H    H7      Em
Visoko je nebo, bog i andjeli...
Ali ja nemogu gore, kao ti...

Refren:

outro:
isti je kao i intro
E|-[12]-
H|-[12]-
G|-[12]-
Добавлено: 27.12.2015
Вам также может быть интересно:
Другие материалы по этой песне:
  • Аккорды и текст

Страница создана 27.12.2015
http://primanota.ru/tutti-frutti-band/krila-leptira-chords.htm
Привет, Гость.
Предлагаем пройти революционный курс по гитаре.
Подарок от PrimaNota.Ru, забирай!