PrimaNota.ru - самый крупный в мире бесплатный архив песенных текстов, аккордов, табулатур и нот


Turtles - The Last Thing I Remember - бас-таба, видео

Регистрация Запомнить меня
Войти через:  Facebook Google Twitter Vk Yandex Mail.ru

Turtles - The Last Thing I Remember - бас-таба, видео

Печатать
Просмотров: 30
Tabbed by: 6METAL6BASSIST6
E-mail: petergriffinav@gmail.com

Tuning: EADG

0:06

G|----------------------------------------------------------------|
D|0---------------------------------------------------------------|
A|--------4-------2-------0---------------------------------------|
E|--------------------------------0-------2-------3-------4-------|

G|----------------------------------------------------------------|
D|----------------3---------------4---------------4---------------|
A|0-------2---------------4---------------------------------------|
E|----------------------------------------------------------------|

G|----------------------------------------------------------------|
D|3---------------3---------------2---------------2-----------1---|
A|----------------------------------------------------------------|
E|----------------------------------------------------------------|

G|----------------------------------------------------------------|
D|--------------------------------0---------------0---------------|
A|2---------------2-----------------------------------------------|
E|----------------------------------------------------------------|

0:27

G|----------------------------------------------------------------|
D|0---------------------------------------------------------------|
A|--------4-------2-------0---------------------------------------|
E|--------------------------------0-------2-------4-------2-------|

G|----------------------------------------------------------------|
D|--------------------------------7-------------------------------|
A|0---------------0-----------------------------------------------|
E|----------------------------------------------------------------|

G|----------------------------------------------------------------|
D|------------7-------7-------7-------7-------7-------7-------7---|
A|0-------0-------0-------0-------0-------0-------7-------7-------|
E|----------------------------------------------------------------|

0:44

G|----------------------------------------------------------------|
D|----7-------7-------7-------7-------7-------7-------7-------7---|
A|0-------0-------0-------0-------0-------0-------0-------0-------|
E|----------------------------------------------------------------|

G|--------------------------------7---------------|
D|5---5---4---4---2---2---0---7-------------------|
A|------------------------------------------------|
E|------------------------------------------------|

G|----------------------------------------------------------------|
D|----7-------7-------7-------7-------7-------7-------7-------7---|
A|0-------0-------0-------0-------0-------0-------0-------0-------|
E|----------------------------------------------------------------|

G|------------------------|
D|5---5---4---4---2---2---|
A|------------------------|
E|------------------------|

1:00

G|----------------------------------------------------------------|
D|0---------------------------------------------------------------|
A|--------4-------2-------0---------------------------------------|
E|--------------------------------0-------2-------4-------4-------|

G|----------------------------------------------------------------|
D|----------------3---------------4---------------4---------------|
A|0-------2---------------4---------------------------------------|
E|----------------------------------------------------------------|

G|----------------------------------------------------------------|
D|3---------------3---------------2---------------2-----------1---|
A|----------------------------------------------------------------|
E|----------------------------------------------------------------|

G|----------------------------------------------------------------|
D|--------------------------------0---------------0---------------|
A|2---------------2-----------2-----------------------------------|
E|----------------------------------------------------------------|

1:22

G|----------------------------------------------------------------|
D|0---------------------------------------------------------------|
A|--------4-------2-------0---------------------------------------|
E|--------------------------------0-------2-------4-------0-------|

G|----------------------------------------------------------------|
D|----------------------------7-----------------------------------|
A|0---------------0---------------0-------------------------------|
E|----------------------------------------------------------------|

G|----------------------------------------------------------------|
D|----7-------7-------7-------7-------7-------7-------7-------7---|
A|0-------0-------0-------0-------0-------0-------0-------0-------|
E|----------------------------------------------------------------|

1:38

G|----------------------------------------------------------------|
D|----7-------7-------7-------7-------7-------7-------7-------7---|
A|0-------0-------0-------0-------0-------0-------0-------0-------|
E|----------------------------------------------------------------|

G|------------------------------------------------|
D|5---5---4-------2-------0---------------7-------|
A|------------------------------------------------|
E|------------------------------------------------|

G|----------------------------------------------------------------|
D|----7-------7-------7-------7-------7-------7-------7-------7---|
A|0-------0-------0-------0-------0-------0-------0-------0-------|
E|----------------------------------------------------------------|

G|------------------------------------4-6-|
D|5---5---4---4---2---2---0---------------|
A|----------------------------------------|
E|----------------------------------------|

1:56

G|7-----------------------------------------------------------4-6-|
D|--------4---5---7-----------7-------------------0---------------|
A|------------------------------7-0---0---2---4-------------------|
E|----------------------------------------------------------------|

G|7---7-------------------------------------------|
D|--------4---5---7-----------7-------------------|
A|------------------------------7-0---0---2---4---|
E|------------------------------------------------|

G|----------------------------------------------------------------|
D|2---2---2---2---2---2---2---2-----------------------------------|
A|--------------------------------2---2---2---2---2---2---2---2---|
E|----------------------------------------------------------------|

G|----------------------------------------------------------------|
D|2---2---2---2---2---2---2---2-------------------0---0---1-------|
A|--------------------------------2---2---2---2---------------3---|
E|----------------------------------------------------------------|

2:16

G|----------------------------------------------------------------|
D|--------7---------------7---------------7-----------7-------7---|
A|0---------------0---------------0---------------0-------0-------|
E|----------------------------------------------------------------|

G|------------------------------------------------|
D|5-------4-------2-------0-----------------------|
A|------------------------------------------------|
E|------------------------------------------------|

G|----------------------------------------------------------------|
D|----7-------7-------7-------7-------7-------7-------7-------7---|
A|0-------0-------0-------0-------0-------0-------0-------0-------|
E|----------------------------------------------------------------|

G|------------------------------------------------|
D|5---5---4---4---2---2---0---0-------------------|
A|--------------------------------4---4---2---2---|
E|------------------------------------------------|

G|----------------------------------------------------------------|
D|----7-------7-------7-------7-------7-------7-------7-------7---|
A|0-------0-------0-------0-------0-------0-------0-------0-------|
E|----------------------------------------------------------------|

G|------------------------------------------------|
D|5---5---4---4---2---2---0---0-------------------|
A|--------------------------------4---4---2---2---|
E|------------------------------------------------|

G|----------------------------------------------------------------|
D|----7-------7-------7-------7-------7-------7-------7-------7---| to fadeout.
A|0-------0-------0-------0-------0-------0-------0-------0-------|
E|----------------------------------------------------------------|
Добавлено: 25.06.2016
Другие материалы по этой песне:
  • Аккорды и текст

Страница создана 25.06.2016
http://primanota.ru/turtles/last-thing-i-remember-chords.htm
Привет, Гость.
Предлагаем пройти революционный курс по гитаре.
Подарок от PrimaNota.Ru, забирай!