PrimaNota.ru - самый крупный в мире бесплатный архив песенных текстов, аккордов, табулатур и нот


Turtles - Get Away - бас-таба, видео

Регистрация Запомнить меня
Войти через:  Facebook Google Twitter Vk Yandex Mail.ru

Turtles - Get Away - бас-таба, видео

Печатать
Просмотров: 61
Уроки эстрадного вокала в Санкт-Петербурге
Tabbed by6METAL6BASSIST6
E-mail: petergriffinav@gmail.com

Tuning: EADG

G|----|
D|----|
A|----|
E|3---|

0:08

G|----------------------------------------------------------------|
D|----------------------------------------------------------------|
A|----------------------------------------------------------------|
E|5-------5---5-/-5-----/-5-------5-------5---5-/-5-----/-5-------|

G|----------------------------------------------------------------|
D|----------------------------------------------------------------|
A|5-------5---5---------------------------------------------------|
E|--------------/-5-----/-5-------3-------3---3---2-------2-------|

G|----------------------------------------------------------------|
D|----------------------------------------------------------------|
A|------------------------0---1---2-------2-------2-------2---5---|
E|3-------3-------3---4-----------------------2-------------------|

G|----------------------------------------------------------------|
D|----------------------------------------------------------------|
A|7-------7-------7-------7---------------------------------------|
E|------------7---------------7---5-------5---5-/-5-------5-------|

G|----------------------------------------------------------------|
D|----------------------------------------------------------------|
A|5-------5---5---------------------------------------------------|
E|--------------/-5-------5-------5-------5-------5-------5-------|

G|----------------|
D|----------------|
A|----------------|
E|5-------5-------|

0:28

G|----------------------------------------------------------------|
D|----------------------------------------------------------------|
A|----------------------------------------------------------------|
E|5-------5---5-/-5-----/-5-------5-------5---5-/-5-------5-------|

G|----------------------------------------------------------------|
D|----------------------------------------------------------------|
A|5-------5---5---------------------------------------------------|
E|--------------/-5-------5-------3-------3---3---2-------2-------|

G|----------------------------------------------------------------|
D|----------------------------------------------------------------|
A|------------------------0---1---2-------2-------2-------2---/---|
E|3-------3---3---3---------------------------2-------------------|

G|----------------------------------------------------------------|
D|----------------------------------------------------------------|
A|7-------7-------7-------7---------------------------------------|
E|------------7---------------7---5-------5---5-/-5-------5---5---|

G|----------------------------------------------------------------|
D|----------------------------------------------------------------|
A|5-------5---5---------------------------------------------------|
E|----------------5-------5-------5-------5-------5-------5-------|

G|----------------|
D|----------------|
A|--------4---5---|
E|5---7-----------|

0:46

G|----------------------------------------------------------------|
D|--------------------------------------------7---------------7---|
A|7-------7-------7-------7-----------4---7-----------7-----------|
E|------------7---------------7---5-------------------------------|

G|----------------------------------------------------------------|
D|----4---7-------------------------------------------------------|
A|5-------------------4-------5---7-------7-------7-------7-------|
E|------------5-------------------------------7-------------------|

G|--------------------------------------------7---------------7---|
D|------------------------------------4---7-----------7-----------|
A|7-----------7---7-----------7---5-------------------------------|
E|----------------------------------------------------------------|

G|----------------------------------------------------------------|
D|------------7---------------7---------------7-------------------|
A|----4---7-----------7---------------4---7-----------7-----------|
E|5-------------------------------5---------------------------5---|

1:03

G|----------------------------------------------------------------|
D|----------------------------------------------------------------| x2
A|----------------------------------------------------------------|
E|7---7---5---5---7---7---5---5---7---7---5---5---7---7---5---5---|

G|----------------------------------------------------------------|
D|----------------------------------------------------------------|
A|7---7---5---5---------------------------------------------------|
E|----------------7---7---5---5---5---5---5---5---5---5---5---5---|

G|----------------------------------------------------------------|
D|----------------------------------------------------------------|
A|------------------------2---3---4-------4-------4-------4---7---|
E|5---5---5---5---5---5-----------------------4-------------------|

G|----------------------------------------------------------------|
D|----------------------------------------------------------------|
A|9-------9-------9-------9---9-----------------------------------|
E|------------9-------------------7-------7---7---7-------7-------|

G|----------------------------------------------------------------|
D|----------------------------------------------------------------|
A|7-------7---7---------------------------------------------------|
E|----------------7-------7-------7-------7-------7-------7-------|

G|----------------|
D|----------------|
A|--------6---7---|
E|7---9-----------|

1:24

G|----------------------------------------------------------------|
D|--------------------------------------------9---------------9---|
A|9-------9-------9-------9-----------6---9-----------9-----------|
E|------------9---------------9---7-------------------------------|

G|----------------------------------------------------------------|
D|----6---9-------------------------------------------------------|
A|7-------------------6-------7---9-----------9---9-----------9---|
E|------------7---------------------------------------------------|

G|--------------------------------------------9-------------------|
D|------------------------------------6---9-----------9-----------|
A|9-----------9---9-----------9---7-------------------------------|
E|----------------------------------------------------------------|

G|----------------------------------------------------------------|
D|------------9-------------------------------9-------------------|
A|----6---9-----------9-------9-------6---9-----------7-------8---|
E|7-------------------------------7-------------------------------|

1:40

G|--------------------------------------------9---------------9---|
D|------------------------------------6---9-----------9-----------|
A|9-----------9---9-----------9---7-------------------------------|
E|----------------------------------------------------------------|

G|----------------------------------------------------------------|
D|------------9---------------9---------------9-------------------|
A|----6---9-----------9---------------6---9-----------7-------8---|
E|7-------------------------------7-------------------------------|

G|--------------------------------------------9-------------------|
D|------------------------------------6---9-----------9-----------|
A|9-----------9---9-----------9---7-------------------------------|
E|----------------------------------------------------------------|

1:50

G|----------------------------------------------------------------|
D|------------9-------7-----------------------9-------7-----------|
A|----6---9-------------------7-------6---9-------------------7---|
E|7-------------------------------7-------------------------------|

G|----------------------------------------------------------------|
D|------------7-------------------------------7-------------------|
A|----6---9----------7--------6-------6---9-----------9-----------|
E|7-------------------------------7-------------------------------|

G|----------------------------------------------------------------|
D|------------9------7------------------------7-------------------|
A|----6---9-------------------7-------6---9-----------7-------6---|
E|7-------------------------------7-------------------------------|

G|----------------------------------------------------------------|
D|------------9---------------9---------------9-------7-----------|
A|----6---9-----------9---------------6---9-------------------7---|
E|7---------------------------------------------------------------|

G|--------------------------------|
D|------------9-------7-----------| fades out here.
A|----6---9-------------------7---|
E|7-------------------------------|
Добавлено: 08.02.2016
Другие материалы по этой песне:
  • Аккорды и текст

Страница создана 08.02.2016
http://primanota.ru/turtles/get-away-chords.htm
Привет, Гость.
Предлагаем пройти революционный курс по гитаре.
Подарок от PrimaNota.Ru, забирай!