PrimaNota.ru - самый крупный в мире бесплатный архив песенных текстов, аккордов, табулатур и нот


Turquoise Sun - To Beat Or Not To Beat - таба, видео

Регистрация Запомнить меня
Войти через:  Facebook Google Twitter Vk Yandex Mail.ru

Turquoise Sun - To Beat Or Not To Beat - таба, видео

Печатать
Просмотров: 46
(Intro)

Around 0:35:

(4x)
(Fm - D# - A# - Fm)
      ^                  ^                  ^                  ^
E--8--8----8--8----8--6--6----6--6----6--6--6----6--6----6--8--8----8--8
B--9--9----9--9----9--8--8----8--8----8--6--6----6--6----6--9--9----9--9
G-10-10---10-10---10--8--8----8--8----8--7--7----7--7----7-10-10---10-10
D-10-10---10-10---10--8--8----8--8----8--8--8----8--8----8-10-10---10-10
A--8--8----8--8----8--6--6----6--6----6--8--8----8--8----8--8--8----8--8
E--8--8----8--8----8--6--6----6--6----6--6--6----6--6----6--8--8----8--8


Fm - D# - C# - A#

Fm                  D#
Made you come around
C#                                A#
Through party other beams and sounds
Fm                  D#
Open up your mouth
C#                              A#
And let the listerine clean it out
Fm                  D#                C#                         A#
There are patterns in the air, that beat towards the drum skin of my ear.

E-------------------------------------|----------------------------------
B----------------------------11-11b13-|----------------------------------
G--s10--8----8--10b12b10--10----------|--s10--10h12---8h10---------------
D----------10-------------------------|------------10-----6--6h8-6h8-6---
A-------------------------------------|--------------------------------8-
E-------------------------------------|----------------------------------

E--------------------------------------
B--------------------------------------
G--s10--12s13---8h10-------------------
D------------13-----6--6h8-6h8-6-------
A--------------------------------8-----
E--------------------------------------


Fm                 D#
Can you tell me how
C#                                     A#
These spectacles arrange the light around?
Fm                  D#                C#                 A#
As patterns in the air, beat towards the drum skin of my ear.

Can't you hear?

E-----------------------------------------------------------------------------
B----------------------------11-11b13b11------14b16b14----15b16(5x)-16b17(5x)-
G--s10--8----8--10b12b10--10------------12-13----------15---------------------
D----------10-----------------------------------------------------------------
A-----------------------------------------------------------------------------
E-----------------------------------------------------------------------------


(6x)
      ^                  ^                  ^                  ^
E--8--8----8--8----8--6--6----6--6----6--6--6----6--6----6--8--8----8--8
B--9--9----9--9----9--8--8----8--8----8--6--6----6--6----6--9--9----9--9
G-10-10---10-10---10--8--8----8--8----8--7--7----7--7----7-10-10---10-10
D-10-10---10-10---10--8--8----8--8----8--8--8----8--8----8-10-10---10-10
A--8--8----8--8----8--6--6----6--6----6--8--8----8--8----8--8--8----8--8
E--8--8----8--8----8--6--6----6--6----6--6--6----6--6----6--8--8----8--8


Fm                    D#      
The flash of time we share 
   A#           Fm
is screaming aloud
Fm                    D#
And I can't help but hear
    A#           Fm
the meaning of the sounds

Fm - D# - C# - A# (3x)

(Break)
The flash of time we share 
is screaming aloud

(1x)
      ^                  ^                  ^                  ^
E--8--8----8--8----8--6--6----6--6----6--6--6----6--6----6--8--8----8--8
B--9--9----9--9----9--8--8----8--8----8--6--6----6--6----6--9--9----9--9
G-10-10---10-10---10--8--8----8--8----8--7--7----7--7----7-10-10---10-10
D-10-10---10-10---10--8--8----8--8----8--8--8----8--8----8-10-10---10-10
A--8--8----8--8----8--6--6----6--6----6--8--8----8--8----8--8--8----8--8
E--8--8----8--8----8--6--6----6--6----6--6--6----6--6----6--8--8----8--8

Fm                    D#
And I can't help but hear
A#           Fm
the meaning of the sounds

There are patterns in the air
We need them around.
Добавлено: 09.06.2016
Другие материалы по этой песне:
  • Аккорды и текст

Страница создана 09.06.2016
http://primanota.ru/turquoise-sun/to-beat-or-not-to-beat-chords.htm
Привет, Гость.
Предлагаем пройти революционный курс по гитаре.
Подарок от PrimaNota.Ru, забирай!