PrimaNota.ru - самый крупный в мире бесплатный архив песенных текстов, аккордов, табулатур и нот


Turquoise Splash - The Twilight Will Rise - аккорды и текст, видео

Регистрация Запомнить меня
Войти через:  Facebook Google Twitter Vk Yandex Mail.ru

Turquoise Splash - The Twilight Will Rise - аккорды и текст, видео

Печатать
Просмотров: 179
Уроки эстрадного вокала в Санкт-Петербурге
The Twilight Will Rise
Turquoise Splash
Here are the chords for The Twilight Will Rise ft. Megaphoric and Joaftheloaf
You can play the whole song by just playing the chords, but if you want to play 
fingerpicking part as well I tabbed it four you.
And hit up my YouTube channel for more ponies! 
http://www.youtube.com/channel/UCI-6zOOhTwEgf7l0RghrCrA
Good luck. :3

E            B         C#m       B          A         B
E            B         C#m       B          A         B

tab
E --------------------------------------
B --------------------------------------
G -------9--------9--------9---------9--
D -----9---9----9---9----9---9-----9---9
A ---7--------6------------------0------
E ---------------------7----------------

E              B       A
I don't know how I can find
   C#m          B          A
The strength for what I've been assigned
  E                B       A
My confidence has faded away
   C#m          B       A
Like dusk chased by the ending day

     E                 B           A
I'm caught between the day and the night
    C#m      B        A
Overshadowed by their blinding light
    E       B                A
The sun and moon; a dazzling pair
C#m                B       A
How could one like me ever hope to compare?
     B
But a voice within me says:

           E
"I will be brave
           A
I will be strong
              C#m        B           A
Despite those around who tell me I'm wrong
          E
I'll make mistakes
                  A
I'll take them in stride
         C#m           B          A
For I am here and I've nothing to hide
                  C#m    A
The twilight will rise
                   B    E
The Twilight will rise"

E            B         C#m       B          A         B
E            B         C#m       B          A         B

E --------------------------------------
B --------------------------------------
G -------9--------9--------9---------9--
D -----9---9----9---9----9---9-----9---9
A ---7--------6------------------0------
E ---------------------7----------------

     E               B        A
I've done so much to get this far
       C#m     B              A
Crossed every bridge, chased every star
     E                B        A
I've brought together dark and light
C#m            B        A     
I've witnessed love and all its might

      E            B        A
Still some believe I do not have
   C#m         B         A
The strength it takes to rise and stand
E                  B       A
Above the rest and take my place
C#m            B           A
To protect and serve those of my race
     B
But a voice within me says:

           E
"I will be brave
           A
I will be strong
              C#m        B           A
Despite those around who tell me I'm wrong
          E
I'll make mistakes
                  A
I'll take them in stride
         C#m           B          A
For I am here and I've nothing to hide
                   C#m    A
The twilight will rise
                   B    E
The Twilight will rise"

E    A     E     B
E       D#m      C#m      B    A   B
E       D#m      C#m      B    A   B    E

E -----------------------------------------------------------------------------------------
A -----------------------------------------------------------------------------------------
D ----------9--------9---------9-----------9------------9-------------9--------------------
G --------9---9----9---9-----9---9-------9---9--------9---9---------9---9------------------
B -----7---------6---------------------6------------7-------------6--------------0---------
E -------------------------7---------------------------------------------------------------
          E
I will be brave
          A
I will be strong
              C#m      B               A
And when they detest I will cry out in song
          E
I'll make mistakes
                  A
I'll take them in stride
             C#m           B          A
All of these doubts, I will cast them aside

           E
I will not bend
           A
I will not break
          C#m             B           A
I must be strong now, for my kingdom's sake
                  E
With help from my friends
          A
Evil will hide
           C#m            B                A
And I will stretch out my wings, touch the sky
                   C#m    A
The twilight will rise
                   B    E
The Twilight will rise"

E -------------------------------------------------------------------------------------
A -------------------------------------------------------------------------------------
D ----------9---------9---------9----------9--------9-----------9-----------9----------
G --------9---9-----9---9-----9---9------9---9----9---9-------9---9---------9----------
B -----7---------6---------0----------0-------------------------------------7----------
E ----------------------------------------------7----------7---------------------------
Добавлено: 17.12.2015
Вам также может быть интересно:
Другие материалы по этой песне:
  • Аккорды и текст

Страница создана 17.12.2015
http://primanota.ru/turquoise-splash/twilight-will-rise-chords.htm
Привет, Гость.
Предлагаем пройти революционный курс по гитаре.
Подарок от PrimaNota.Ru, забирай!