PrimaNota.ru - самый крупный в мире бесплатный архив песенных текстов, аккордов, табулатур и нот


Turnstile - The Things You Do - таба, видео

Регистрация Запомнить меня
Войти через:  Facebook Google Twitter Vk Yandex Mail.ru

Turnstile - The Things You Do - таба, видео

Печатать
Просмотров: 104
-------------------------------------------------------------------------------
                             TURNSTILE - "The Things You Do"
-------------------------------------------------------------------------------
from the ep Pressure To Succeed
If you have any suggestions or corrections, email forexesband@gmail.com
Buy the record and go to a show, you'll be doing yourself a favor
turnstilehc.bandcamp.com
also check out my band, forexes.bandcamp.com

Tuning: Drop D

Verse
e|---------------------------------------------------------------------------|
B|---------------------------------------------------------------------------|
G|-----7/8-7/8---------------------------------------------------------------|
D|-3-6-7/8-7/8--x3--3-6-3----------------------------------------------------|
A|-3-6-5/6-5/6------3-6-3----------------------------------------------------|
D|-3-6--------------3-6-3----------------------------------------------------|

I'M NOT YOUR AVERAGE, I'M NOT YOUR ORDINARY
e|---------------------------------------------------------------------------|
B|---------------------------------------------------------------------------|
G|---------------------------------------------------------------------------|
D|-9-8-9-9-9-9-1-0-0-0-0-0-0-0-9-8-9-9-9-9-4-1-5-1-4-1-4---------------------|
A|-9-8-9-9-9-9-1-0-0-0-0-0-0-0-9-8-9-9-9-9-4-1-5-1-4-1-4---------------------|
D|-9-8-9-9-9-9-1-0-0-0-0-0-0-0-9-8-9-9-9-9-4-1-5-1-4-1-4---------------------|
   . .   . . .     . .   . . . . .   . . .      

Play that for the rest of the song
Добавлено: 31.08.2015
Другие материалы по этой песне:
  • Аккорды и текст

Страница создана 31.08.2015
http://primanota.ru/turnstile/things-you-do-chords.htm
Привет, Гость.
Предлагаем пройти революционный курс по гитаре.
Подарок от PrimaNota.Ru, забирай!