PrimaNota.ru - самый крупный в мире бесплатный архив песенных текстов, аккордов, табулатур и нот


Turnstile - Stress - таба, видео

Регистрация Запомнить меня
Войти через:  Facebook Google Twitter Vk Yandex Mail.ru

Turnstile - Stress - таба, видео

Печатать
Просмотров: 127
-------------------------------------------------------------------------------
                             TURNSTILE - "Stress"
-------------------------------------------------------------------------------
from the album Nonstop Feeling
If you have any suggestions or corrections, email forexesband@gmail.com
Buy the record and go to a show, you'll be doing yourself a favor
turnstilehc.bandcamp.com
also check out my band, forexes.bandcamp.com

Tuning: Drop D

Intro
e|---------------------------------------------------------------------------|
B|---------------------------------------------------------------------------|
G|---------------------------------------------------------------------------|
D|-5-4-----------------------------------------------------------------------| x4
A|-5-4-----------------------------------------------------------------------|
D|-5-4-----------------------------------------------------------------------|

Verse
e|---------------------------------------------------------------------------|
B|---------------------------------------------------------------------------|
G|---------------------------------------------------------------------------|
D|-4-3-X----4-3-4-7-4--------------------------------------------------------| x4
A|-4-3-X-x3-4-3-4-7-4--------------------------------------------------------|
D|-4-3-X----4-3-4-7-4--------------------------------------------------------|

Pre-Chorus
e|---------------------------------------------------------------------------|
B|---------------------------------------------------------------------------|
G|---------------------------------------------------------------------------|
D|-5-4-----------------------------------------------------------------------| x2
A|-5-4-----------------------------------------------------------------------|
D|-5-4-----------------------------------------------------------------------|

Verse
e|---------------------------------------------------------------------------|
B|---------------------------------------------------------------------------|
G|---------------------------------------------------------------------------|
D|-4-3-X----4-3-4-7-4--------------------------------------------------------| x4
A|-4-3-X-x3-4-3-4-7-4--------------------------------------------------------|
D|-4-3-X----4-3-4-7-4--------------------------------------------------------|

Pre-Chorus
e|---------------------------------------------------------------------------|
B|---------------------------------------------------------------------------|
G|---------------------------------------------------------------------------|
D|-5-4------5-4-4-4-4-4-4-4-4-4-5-4-4-4-4------5-----------------------------| 
A|-5-4--x4--5-4-4-4-4-4-4-4-4-4-5-4-4-4-4--x7--5-----------------------------|
D|-5-4------5-4-4-4-4-4-4-4-4-4-5-4-4-4-4------5-----------------------------|
                .   .   .   .       . . .      .

Chorus
e|---------------------------------------------------------------------------|
B|---------------------------------------------------------------------------|
G|---------------------------------------------------------------------------|
D|-5-4---5-5-4-8-8-----------------------------------------------------------|
A|-5-4---5-5-4-8-8-x4--------------------------------------------------------|
D|-5-4---5-5-4-8-8-----------------------------------------------------------|

Outro
e|---------------------------------------------------------------------------|
B|---------------------------------------------------------------------------|
G|---------------------------------------------------------------------------|
D|-4-4-4-2-2-2-4-4-4-2-2-2-4-4-2-2----1-1-1-2-2-2-4-4------------------------|
A|-4-4-4-2-2-2-4-4-4-2-2-2-4-4-2-2-x2-1-1-1-2-2-2-4-4------------------------|
D|-4-4-4-2-2-2-4-4-4-2-2-2-4-4-2-2----1-1-1-2-2-2-4-4------------------------|

e|---------------------------------------------------------------------------|
B|---------------------------------------------------------------------------|
G|-3-3-3-------3-3-3---------3-3-3-------------------------------------------|
D|-3-3-3-2-2-2-3-3-3-2-2-2-2-3-3-3-------------------------------------------|
A|-1-1-1-2-2-2-1-1-1-2-2-2-2-1-1-1-------------------------------------------|
D|-------2-2-2-------2-2-2-2-------------------------------------------------|
Добавлено: 31.08.2015
Вам также может быть интересно:
Другие материалы по этой песне:
  • Аккорды и текст

Страница создана 31.08.2015
http://primanota.ru/turnstile/stress-chords.htm
Привет, Гость.
Предлагаем пройти революционный курс по гитаре.
Подарок от PrimaNota.Ru, забирай!