PrimaNota.ru - самый крупный в мире бесплатный архив песенных текстов, аккордов, табулатур и нот


Turnstile - Pressure To Succeed - таба, видео

Регистрация Запомнить меня
Войти через:  Facebook Google Twitter Vk Yandex Mail.ru

Turnstile - Pressure To Succeed - таба, видео

Печатать
Просмотров: 179
Уроки эстрадного вокала в Санкт-Петербурге
-------------------------------------------------------------------------------
                             TURNSTILE - "Pressure To Succeed"
-------------------------------------------------------------------------------
from the ep Pressure To Succeed
If you have any suggestions or corrections, email forexesband@gmail.com
Buy the record and go to a show, you'll be doing yourself a favor
turnstilehc.bandcamp.com
also check out my band, forexes.bandcamp.com

Tuning: Drop D

Intro/Verse
e|---------------------------------------------------------------------------|
B|---------------------------------------------------------------------------|
G|----------------------------------------------555777-----------------------|
D|-4-3-2-0-000-0001-004003001h3-0-0-000-0001-000555777-----------------------| x6
A|-4-3-2-0-000-0001-004003001h3-0-0-000-0001-000333555-----------------------|
D|-4-3-2-0-000-0001-004003001h3-0-0-000-0001-000-----------------------------|
   . . .   ..  ..   .. .. ..    .   ..  ..   ..  .. ..

e|-SELF-DOUBT------BLINDS-ME-------------------------------------------------|
B|---------------------------------------------------------------------------|
G|---------------------------------------------------------------------------|
D|---0---1---1-1-1---4----3---3-3-3--0---------------------------------------|
A|---0---1---1-1-1---4----3---3-3-3--0---------------------------------------|
D|---0---1---1-1-1---4----3---3-3-3--0---------------------------------------|
             . . .              .   
e|---------------------------------------------------------------------------|
B|---------------------------------------------------------------------------|
G|-------------6-10-8-8-8-8-8-8----------------------------------------------|
D|-0-0-0-0-0-0-6-10-8-8-8-8-8-8-8-8-8-9-9-9-9-8-8-8-9-9-9-9-0-0-0-0-0-0-0-0--| x2
A|-0-0-0-0-0-0-4-8--6-6-6-6-6-6-8-8-8-9-9-9-9-8-8-8-9-9-9-9-0-0-0-0-0-0-0-0--|
D|-0-0-0-0-0-0------------------8-8-8-9-9-9-9-8-8-8-9-9-9-9-0-0-0-0-0-0-0-0--|


e|---------------------------------------------------------------------------|
B|---------------------------------------------------------------------------|
G|---------------------------------------------------------------------------|
D|-9-9-9-9-9-9-9-9-11-9-8-8-8-8-12-12-12-12----------------------------------|
A|-9-9-9-9-9-9-9-9-11-9-8-8-8-8-12-12-12-12----------------------------------|
D|-9-9-9-9-9-9-9-9-11-9-8-8-8-8-12-12-12-12----------------------------------|

e|---------------------------------|------------------------------------------|
B|---------------------------------|------------------------------------------|
G|---------------------------------|------------------------------------------|
D|-9-9-9-9-9-9-9-9-11-9-8---7---0--|--------0~--------------------------------|
A|-9-9-9-9-9-9-9-9-11-9-8---7---0--|------3-0~--x2----------------------------|
D|-9-9-9-9-9-9-9-9-11-9-8---7---0--|--1-4---0~--------------------------------|

e|----------------------------------------------------------------------------|
B|----------------------------------------------------------------------------|
G|-7~-6~-2-3/6-6--------------------------------------------------------------|
D|-7~-6~-2-3/6-6-6~-----------0-1-1-1-1-4-3-1-0-1-0-0-0-0-0-0-0-0-0-0-0-0-0-0-|
A|-5~-4~-0-1/4-4-6~-x2------3-0-1-1-1-1-4-3-1-0-1-0-0-0-0-0-0-0-0-0-0-0-0-0-0-|
D|---------------6~-----1-4---0-1-1-1-1-4-3-1-0-1-0-0-0-0-0-0-0-0-0-0-0-0-0-0-|
                                  . . .       .     . . . . . . . . . . . . .          

e|---------------------------------------------------------------------------|
B|---------------------------------------------------------------------------|
G|---------------------------------------------------------------------------|
D|-6-9-8-5--6-9-4-3-4-3-2-1-0-0-0-0-0-0-0-0-0-4-8-7-3--4-8-7-3-4-3-2-0-------|
A|-6-9-8-5--6-9-4-3-4-3-2-1-0-0-0-0-0-0-0-0-0-4-8-7-3--4-8-7-3-4-3-2-0-------|
D|-6-9-8-5--6-9-4-3-4-3-2-1-0-0-0-0-0-0-0-0-0-4-8-7-3--4-8-7-3-4-3-2-0-------|

e|---------------------------------------------------------------------------|
B|---------------------------------------------------------------------------|
G|---------------------------------------------------------------------------|
D|-0-0-0---0-0---0-0-0---0---0---00-0-0---0000004-8-7-3-4-3-2-0--------------|
A|-0-0-0---0-0---0-0-0---0---0---00-0-0---0000004-8-7-3-4-3-2-0--------------|
D|-0-0-0---0-0---0-0-0---0---0---00-0-0---0000004-8-7-3-4-3-2-0--------------|

S0lo
e|---------------------------------------------------------------------------|
B|-----------------------------------7h8p7---7-------------------------------|
G|-------------------6----------578~-------8---8-7h8p7----7------------------|
D|-----------------5---5~---4578-----------------------10---10-8h10p8-7------|
A|-5~-5-6-5-2-3~-4--------56-------------------------------------------------|
D|---------------------------------------------------------------------------|

e|---------------------------------------------------------------------------|
B|---------------------------------------------------------------------------|
G|-------------------------------------------------7~------------------------|
D|-7h8p7-5-7-5-4h5p4---4-----------------------------------------------------|
A|-------------------6---6-5h6p5-3-5-3-5-6-5-3-5~----------------------------|
D|---------------------------------------------------------------------------|

Outro
e|---------------------------------------------------------------------------|
B|---------------------------------------------------------------------------|
G|---------------------------------------------------------------------------|
D|-------0~--------0-1-1-1-1-4-3-1-0-1-0-------------------------------------|
A|-----3-0~------3-0-1-1-1-1-4-3-1-0-1-0-------------------------------------|
D|-1-4---0~--1-4---0-1-1-1-1-4-3-1-0-1-0-------------------------------------|

Добавлено: 31.08.2015
Другие материалы по этой песне:
  • Аккорды и текст

Страница создана 31.08.2015
http://primanota.ru/turnstile/pressure-to-succeed-chords.htm
Привет, Гость.
Предлагаем пройти революционный курс по гитаре.
Подарок от PrimaNota.Ru, забирай!