PrimaNota.ru - самый крупный в мире бесплатный архив песенных текстов, аккордов, табулатур и нот


Turnstile - Out Of Rage - таба, видео

Регистрация Запомнить меня
Войти через:  Facebook Google Twitter Vk Yandex Mail.ru

Turnstile - Out Of Rage - таба, видео

Печатать
Просмотров: 143
-------------------------------------------------------------------------------
                             TURNSTILE - "Out Of Rage"
-------------------------------------------------------------------------------
from the album Nonstop Feeling
If you have any suggestions or corrections, email forexesband@gmail.com
Buy the record and go to a show, you'll be doing yourself a favor
turnstilehc.bandcamp.com
also check out my band, forexes.bandcamp.com

Tuning: Drop D

Intro
e|---------------------------------------------------------------------------|
B|---------------------------------------------------------------------------|
G|---------------------------------------------------------------------------|
D|-------3-3-3-2-------------------------------------------------------------|
A|-------3-3-3-2-------------------------------------------------------------|
D|-slide-3-3-3-2-------------------------------------------------------------|

Verse

Chorus
e|---------------------------------------------------------------------------|
B|---------------------------------------------------------------------------|
G|---------------------------------------------------------------------------|
D|-2-2-2-0-2-2-2-0-2-2-0-3-3-3-3------2~-3-3-2-------------------------------|
A|-2-2-2-0-2-2-2-0-2-2-0-3-3-3-3--x8--2~-3-3-2-------------------------------|
D|-2-2-2-0-2-2-2-0-2-2-0-3-3-3-3------2~-3-3-2-------------------------------|

Verse

Chorus
e|---------------------------------------------------------------------------|
B|---------------------------------------------------------------------------|
G|---------------------------------------------------------------------------|
D|-2-2-2-0-2-2-2-0-2-2-0-3-3-3-3---------------------------------------------|
A|-2-2-2-0-2-2-2-0-2-2-0-3-3-3-3--x12----------------------------------------|
D|-2-2-2-0-2-2-2-0-2-2-0-3-3-3-3---------------------------------------------|

Bridge
e|---------------------------------------------------------------------------|
B|---------------------------------------------------------------------------|
G|---------------------------------------------------------------------------|
D|-2-0-2-2-2-2-2-2-2-2-2-2-2-2-2-2-2-2-2-2-2-2-2-2-2-2-2-2-2-2-3-------------|
A|-2-0-2-2-2-2-2-2-2-2-2-2-2-2-2-2-2-2-2-2-2-2-2-2-2-2-2-2-2-2-3-------------|
D|-2-0-2-2-2-2-2-2-2-2-2-2-2-2-2-2-2-2-2-2-2-2-2-2-2-2-2-2-2-2-3-------------|
         . . . . . . . . . . . . . . . . . . . . . . . . . . . 

e|---------------------------------------------------------------------------|
B|---------------------------------------------------------------------------|
G|---------------------------------------------------------------------------|
D|-2-2-2-2-2-2-3-2-2-2-2-2-2-3-2-2-3-2-2-3-3---------------------------------|
A|-2-2-2-2-2-2-3-2-2-2-2-2-2-3-2-2-3-2-2-3-3---------------------------------|
D|-2-2-2-2-2-2-3-2-2-2-2-2-2-3-2-2-3-2-2-3-3---------------------------------|
   . . . . . .   . . . . . .   . .   . . 

Chorus
e|---------------------------------------------------------------------------|
B|---------------------------------------------------------------------------|
G|---------------------------------------------------------------------------|
D|-2-2-2-0-2-2-2-0-2-2-0-3-3-3-3---------------------------------------------|
A|-2-2-2-0-2-2-2-0-2-2-0-3-3-3-3--x4-----------------------------------------|
D|-2-2-2-0-2-2-2-0-2-2-0-3-3-3-3---------------------------------------------|
Добавлено: 31.08.2015
Другие материалы по этой песне:
  • Аккорды и текст

Страница создана 31.08.2015
http://primanota.ru/turnstile/out-of-rage-chords.htm
Привет, Гость.
Предлагаем пройти революционный курс по гитаре.
Подарок от PrimaNota.Ru, забирай!