PrimaNota.ru - самый крупный в мире бесплатный архив песенных текстов, аккордов, табулатур и нот


Turnstile - Love Lasso - таба, видео

Регистрация Запомнить меня
Войти через:  Facebook Google Twitter Vk Yandex Mail.ru

Turnstile - Love Lasso - таба, видео

Печатать
Просмотров: 130
-------------------------------------------------------------------------------
                             TURNSTILE - "Love Lasso"
-------------------------------------------------------------------------------
from the album Nonstop Feeling
If you have any suggestions or corrections, email forexesband@gmail.com
Buy the record and go to a show, you'll be doing yourself a favor
turnstilehc.bandcamp.com
also check out my band, forexes.bandcamp.com

Tuning: Drop D

e|---------------------------------------------------------------------------|
B|---------------------------------------------------------------------------|
G|-7b------------------------------------------------------------------------|
D|----10-8-------------------------------------------------------------------|
A|---------10-10-8-10-6~-8-10~-----------------------------------------------|
D|---------------------------------------------------------------------------|

e|---------------------------|-------------------------------------------------|
B|-----------7-4-------------|-------------------------------------------------|
G|-------------------------7-|-7b----------------------------------------------|
D|---8-5-------------8-5-8---|----10-8-----------------------------------------|
A|-6-------5-------6---------|---------10-10-8-10-6--x3--8-10------------------|
D|---------------------------|-------------------------------------------------|

e|---------------------------|-------------------------------------------------|
B|-----------7-4-------------|-------------------------------------------------|
G|-------------------------7-|-7b----------------------------------------------|
D|---8-5-------------8-5-8---|----10-8-----------------------------------------|
A|-6-------5-------6---------|---------10-10-8-10-6--x2------------------------|
D|---------------------------|-------------------------------------------------|

e|---------------------------------------------------------------------------|
B|---------------------------------------------------------------------------|
G|-7b---------------------7b--------------------7b---------------------------|
D|----10-8-------------------10-8------------------10-8-8/10-----------------|
A|---------10-10-8-10-11----------10-10-8-10-6---------------8-8/10-10/11----|
D|---------------------------------------------------------------------------|

e|-------------------------------------------------------------------------------|
B|-------------------------------------------------------------------------------|
G|-----------6-6h7-7-7-7-7-6-6---------------------------------------------------|
D|-----------------------------10------------------------------------------------|
A|-11\10-10------------------------8-10------------------------------------------|
D|-------------------------------------------------------------------------------|
Добавлено: 31.08.2015
Другие материалы по этой песне:
  • Аккорды и текст

Страница создана 31.08.2015
http://primanota.ru/turnstile/love-lasso-chords.htm
Привет, Гость.
Предлагаем пройти революционный курс по гитаре.
Подарок от PrimaNota.Ru, забирай!