PrimaNota.ru - самый крупный в мире бесплатный архив песенных текстов, аккордов, табулатур и нот


Turnstile - Keep It Moving - таба, видео

Регистрация Запомнить меня
Войти через:  Facebook Google Twitter Vk Yandex Mail.ru

Turnstile - Keep It Moving - таба, видео

Печатать
Просмотров: 154
-------------------------------------------------------------------------------
                             TURNSTILE - "Keep It Moving"
-------------------------------------------------------------------------------
from the ep Step 2 Rhythm 
If you have any suggestions or corrections, email forexesband@gmail.com
Buy the record and go to a show, you'll be doing yourself a favor
turnstilehc.bandcamp.com
also check out my band, forexes.bandcamp.com

Tuning: Drop D

Intro
e|---------------------------------------------------------------------------|
B|---------------------------------------------------------------------------|
G|---------------------------------------------------------------------------|
D|-1-2-2-1-1-1-4-3-2-1-1-2-2-1-1-----7---------------------------------------| x4
A|-1-2-2-1-1-1-4-3-2-1-1-2-2-1-1---6---9-------------------------------------|
D|-1-2-2-1-1-1-4-3-2-1-1-2-2-1-1-6-------------------------------------------|

Verse
e|---------------------------------------------------------------------------|
B|---------------------------------------------------------------------------|
G|---------------------------------------------------------------------------|
D|-1-2-2-1-1-1-4-3-2-1-1-2-2-1-1-1-1-1-1-1-1-1-------------------------------| 
A|-1-2-2-1-1-1-4-3-2-1-1-2-2-1-1-1-1-1-1-1-1-1-------------------------------|
D|-1-2-2-1-1-1-4-3-2-1-1-2-2-1-1-1-1-1-1-1-1-1-------------------------------|

e|---------------------------------------------------------------------------|
B|---------------------------------------------------------------------------|
G|---------------------------------------------------------------------------|
D|-1-2-2-1-1-1-4-3-2-1-1-2-2-1-1-----7---------------------------------------| 
A|-1-2-2-1-1-1-4-3-2-1-1-2-2-1-1---6---9~------------------------------------|
D|-1-2-2-1-1-1-4-3-2-1-1-2-2-1-1-6-------------------------------------------|

e|---------------------------------------------------------------------------|
B|---------------------------------------------------------------------------|
G|---6/5---------------------------------------------------------------------|
D|-6-6/5-3-7-----------------------------------------------------------------|
A|-6-4/3-3-7--x2-------------------------------------------------------------|
D|-6-----3-7-----------------------------------------------------------------|

Chorus
e|---------------------------------------------------------------------------|
B|---------------------------------------------------------------------------|
G|---------------------------------------------------------------------------|
D|-6-6-6-6-9-3-3-3-3-2-3-3-3-3-4-3-3-3-3-3-3-3-------------------------------|
A|-6-6-6-6-9-3-3-3-3-2-3-3-3-3-4-3-3-3-3-3-3-3-------------------------------|
D|-6-6-6-6-9-3-3-3-3-2-3-3-3-3-4-3-3-3-3-3-3-3-------------------------------|

Verse
e|---------------------------------------------------------------------------|
B|---------------------------------------------------------------------------|
G|---6/5---------------------------------------------------------------------|
D|-6-6/5-3-7-----------------------------------------------------------------|
A|-6-4/3-3-7--x2-------------------------------------------------------------|
D|-6-----3-7-----------------------------------------------------------------|

Chorus
e|---------------------------------------------------------------------------|
B|---------------------------------------------------------------------------|
G|---------------------------------------------------------------------------|
D|-6-6-6-6-9-3-3-3-3-2-3-3-3-3-4-3-3-3-3-3-3-3-x4-3-1-4~-3-1-9~--------------|
A|-6-6-6-6-9-3-3-3-3-2-3-3-3-3-4-3-3-3-3-3-3-3----3-1-4~-3-1-9~--------------|
D|-6-6-6-6-9-3-3-3-3-2-3-3-3-3-4-3-3-3-3-3-3-3----3-1-4~-3-1-9~--------------|

Solo
e|---------------------------------------------------------------------------|
B|---------------------------------------------------------------------------|
G|-10~-10-9------------------------------------------------------------------|
D|----------11-10~-8-10/11-10-8-7-7/11-10~--7-7-7-5-7-5-7-5-7-5-7/10---------|
A|---------------------------------------------------------------------------|
D|---------------------------------------------------------------------------|

e|---------------------------------------------------------------------------|
B|---------------------------------------------------------------------------|
G|----10----10----10-12-10---10-5-11~-------11-10---------11-10--------------|
D|-10----10----10----------8-10-5-11~-10b---------12-11---------12-11-10-----|
A|---------------------------------------------------------------------------|
D|---------------------------------------------------------------------------|

Intro
e|---------------------------------------------------------------------------|
B|---------------------------------------------------------------------------|
G|---------------------------------------------------------------------------|
D|-1-2-2-1-1-1-4-3-2-1-1-2-2-1-1-----7---------------------------------------| x3
A|-1-2-2-1-1-1-4-3-2-1-1-2-2-1-1---6---9-------------------------------------|
D|-1-2-2-1-1-1-4-3-2-1-1-2-2-1-1-6-------------------------------------------|

Verse
e|---------------------------------------------------------------------------|
B|---------------------------------------------------------------------------|
G|---------------------------------------------------------------------------|
D|-1-2-2-1-1-1-4-3-2-1-1-2-2-1-1-1-1-1-1-1-1-1-------------------------------| x2
A|-1-2-2-1-1-1-4-3-2-1-1-2-2-1-1-1-1-1-1-1-1-1-------------------------------|
D|-1-2-2-1-1-1-4-3-2-1-1-2-2-1-1-1-1-1-1-1-1-1-------------------------------|

Добавлено: 31.08.2015
Другие материалы по этой песне:
  • Аккорды и текст

Страница создана 31.08.2015
http://primanota.ru/turnstile/keep-it-moving-chords.htm
Привет, Гость.
Предлагаем пройти революционный курс по гитаре.
Подарок от PrimaNota.Ru, забирай!