PrimaNota.ru - самый крупный в мире бесплатный архив песенных текстов, аккордов, табулатур и нот


Turnstile - Gravity - таба, бас-таба, видео

Регистрация Запомнить меня
Войти через:  Facebook Google Twitter Vk Yandex Mail.ru

Turnstile - Gravity - таба, бас-таба, видео

Печатать
Просмотров: 133
-------------------------------------------------------------------------------
                             TURNSTILE - "GRAVITY"
-------------------------------------------------------------------------------
from the album Nonstop Feeling
If you have any suggestions or corrections, email forexesband@gmail.com
Buy the record and go to a show, you'll be doing yourself a favor
turnstilehc.bandcamp.com
also check out my band, forexes.bandcamp.com

Tuning: Drop D

Intro
e|---------------------------------------------------------------------------|
B|---------------------------------------------------------------------------|
G|-5----------5-------------5----------------3----------------3--------------|
D|-5-5-3-2----5-5-3-2-3-5---5-5-3-2----------3---x2---2-1-2-1-3---x2---2-1---| 
A|-3-5-3-2----3-5-3-2-3-5---3-5-3-2--2-1-2-1-1--------2-1-2-1-1--------2-1---|
D|---5-3-2------5-3-2-3-5-----5-3-2--2-1-2-1----------2-1-2-1----------2-1---|

Verse
e|---------------------------------------------------------------------------|
B|---------------------------------------------------------------------------|
G|---------------------------------------------------------------------------|
D|-2-3-0-2-5-2--x2--2-3-2-0-5-2-22-5-2---------------------------------------| x4
A|-2-3-0-2-5-2------2-3-2-0-5-2-22-5-2---------------------------------------|
D|-2-3-0-2-5-2------2-3-2-0-5-2-22-5-2---------------------------------------|
   .                .           ..

Chorus
e|----------------------------------|-first time-|-second time---------------|
B|----------------------------------|------------|---------------------------|
G|-5----------5-------------5-------|---------3--|---------------------------|
D|-5-5-3-2----5-5-3-2-3-5---5-5-3-2-|---------3--|-2-2-----------------------| 
A|-3-5-3-2----3-5-3-2-3-5---3-5-3-2-|-2-1-2-1-1--|-2-2-----------------------|
D|---5-3-2------5-3-2-3-5-----5-3-2-|-2-1-2-1----|-2-2-slide-----------------|

Verse
e|---------------------------------------------------------------------------|
B|---------------------------------------------------------------------------|
G|---------------------------------------------------------------------------|
D|-2-3-0-2-5-2--x2--2-3-2-0-5-2-22-5-2---------------------------------------| x2
A|-2-3-0-2-5-2------2-3-2-0-5-2-22-5-2---------------------------------------|
D|-2-3-0-2-5-2------2-3-2-0-5-2-22-5-2---------------------------------------|

Chorus
e|----------------------------------|-first time-|
B|----------------------------------|------------|
G|-5----------5-------------5-------|---------3--|
D|-5-5-3-2----5-5-3-2-3-5---5-5-3-2-|---------3--|
A|-3-5-3-2----3-5-3-2-3-5---3-5-3-2-|-2-1-2-1-1--|
D|---5-3-2------5-3-2-3-5-----5-3-2-|-2-1-2-1----|

e|-second time-------------------------------------------------------------|
B|-------------------------------------------------------------------------|
G|-5----------5-------------5----------------3-----------------------------|
D|-5-5-3-2----5-5-3-2-3-5---5-5-3-2----------3-----------------------------|
A|-3-5-3-2----3-5-3-2-3-5---3-5-3-2--2-1-2-1-1-----------------------------|
D|---5-3-2------5-3-2-3-5-----5-3-2--2-1-2-1-------------------------------|

e|-------------------------------------------------------------------------|
B|-------------------------------------------------------------------------|
G|-5----------5-------------5----------------3-----------------------------|
D|-5-5-3-2----5-5-3-2-3-5---5-5-3-2----------3---2-2-----------------------| 
A|-3-5-3-2----3-5-3-2-3-5---3-5-3-2--2-1-2-1-1---2-2-----------------------|
D|---5-3-2------5-3-2-3-5-----5-3-2--2-1-2-1-----2-2-slide-----------------|

Outro
e|---------------------------------------------------------------------------|
B|---------------------------------------------------------------------------|
G|-----------------------------------------------------3-2-------------------|
D|-2-1-1-1-1-1-1-5-4-1-1-1-1-1-2-2-1-1-1-1-1-1-5-4-1-1-3-2-------------------|
A|-2-1-1-1-1-1-1-5-4-1-1-1-1-1-2-2-1-1-1-1-1-1-5-4-1-1-1-0-------------------|
D|-2-1-1-1-1-1-1-5-4-1-1-1-1-1-2-2-1-1-1-1-1-1-5-4-1-1-----------------------|
       . . . . .     . . . . .       . . . . .     . . 

************************************

| /   slide up
| \   slide down
| h   hammer-on
| p   pull-off
| ~   vibrato
| +   harmonic
| x   Mute note
| b   Bend
| pb  Pre-bend
| br  Bend release
| pbr Pre-bend release
| brb Bend release bend

************************************
Добавлено: 31.08.2015
Другие материалы по этой песне:
  • Аккорды и текст

Страница создана 31.08.2015
http://primanota.ru/turnstile/gravity-chords.htm
Привет, Гость.
Предлагаем пройти революционный курс по гитаре.
Подарок от PrimaNota.Ru, забирай!