PrimaNota.ru - самый крупный в мире бесплатный архив песенных текстов, аккордов, табулатур и нот


Turnstile - Fazed Out - таба, видео

Регистрация Запомнить меня
Войти через:  Facebook Google Twitter Vk Yandex Mail.ru

Turnstile - Fazed Out - таба, видео

Печатать
Просмотров: 127
-------------------------------------------------------------------------------
                             TURNSTILE - "Fazed Out"
-------------------------------------------------------------------------------
from the album Nonstop Feeling
If you have any suggestions or corrections, email forexesband@gmail.com
Buy the record and go to a show, you'll be doing yourself a favor
turnstilehc.bandcamp.com
also check out my band, forexes.bandcamp.com

Tuning: Drop D

Intro
e|---------------------|--first time-------|--second time--------------------|
B|---------------------|-------------------|---------------------------------|
G|---------------------|---------------3-4-|---------------------------------|
D|-2-0-2-2-0-2-2-7-5-1-|-2-0-2-2-0-2-2-3-4-|-2-0-2-2-0-2-0-0-3-0-0-3---------| x3
A|-2-0-2-2-0-2-2-7-5-1-|-2-0-2-2-0-2-2-1-6-|-2-0-2-2-0-2-0-0-3-0-0-3---------|
D|-2-0-2-2-0-2-2-7-5-1-|-2-0-2-2-0-2-2-----|-2-0-2-2-0-2-0-0-3-0-0-3---------|

Verse
e|--------------------------------------------YEAH YEAH YEAH YOU GOT ME------|
B|---------------------------------------------------------------------------|
G|---------------------------------------------------------------------------|
D|-2-3-2-2-2-2-2-7-7-2-3-2-2-2-2-2-2-6-3--x4--3------------------------------| 
A|-2-3-2-2-2-2-2-7-7-2-3-2-2-2-2-2-2-6-3------3------------------------------|
D|-2-3-2-2-2-2-2-7-7-2-3-2-2-2-2-2-2-6-3------3------------------------------|

Chorus
e|-----------FAZED----------OUT----------------------------------------------|
B|---------------------------------------------------------------------------|
G|---------------------------------------------------------------------------|
D|-2-2-2-2-2-2-6-2-2-2-2-2-2-3-----------------------------------------------| x2
A|-2-2-2-2-2-2-6-2-2-2-2-2-2-3-----------------------------------------------|
D|-2-2-2-2-2-2-6-2-2-2-2-2-2-3-----------------------------------------------|
   . . . . . .   . . . . . . 

Verse
e|--------------------------------------------YEAH YEAH YEAH YEAH------------|
B|---------------------------------------------------------------------------|
G|---------------------------------------------------------------------------|
D|-2-3-2-2-2-2-2-7-7-2-3-2-2-2-2-2-2-6-3--x2--3------------------------------| 
A|-2-3-2-2-2-2-2-7-7-2-3-2-2-2-2-2-2-6-3------3------------------------------|
D|-2-3-2-2-2-2-2-7-7-2-3-2-2-2-2-2-2-6-3------3------------------------------|

Chorus
e|-----------FAZED----------OUT----------------------------------------------|
B|---------------------------------------------------------------------------|
G|---------------------------------------------------------------------------|
D|-2-2-2-2-2-2-6-2-2-2-2-2-2-3-----------------------------------------------| x4
A|-2-2-2-2-2-2-6-2-2-2-2-2-2-3-----------------------------------------------|
D|-2-2-2-2-2-2-6-2-2-2-2-2-2-3-----------------------------------------------|
   . . . . . .   . . . . . . 

Solo
e|----------------------------------7-6~-776788781010910111110-11------------|
B|------------8---------7-------8-7------------------------------------------|
G|----------7---7-9-7-6---6-4~~----------------------------------------------|
D|------7-9------------------------------------------------------------------|
A|-7-10----------------------------------------------------------------------|
D|---------------------------------------------------------------------------|

e|-12-10----10-11-12-15-10-12b--12-------------------------------------------|
B|-------12------------------------------------------------------------------|
G|---------------------------------11-7---7----------------------------------|
D|--------------------------------------9---9-7-9-7-6-7-6---6----------------|
A|--------------------------------------------------------8---8-7-10-13-11-14|
D|---------------------------------------------------------------------------|

e|---------------------------------------------------------------------------|
B|---------------------------------------------------------------------------|
G|-12-14----12----12-14-15-14----12------------------------------------------|
D|-12-14-14-12-14-12-14-15-14-14-12---5~-------------------------------------|
A|------------------------------------5~-------------------------------------|
D|------------------------------------5~-------------------------------------|

Chorus
e|---------------------|--first time-------|--second time--------------------|
B|---------------------|-------------------|---------------------------------|
G|---------------------|---------------3-4-|---------------------------------|
D|-2-0-2-2-0-2-2-7-5-1-|-2-0-2-2-0-2-2-3-4-|-2-0-2-2-0-2-0-0-3-0-0-3---------| x2
A|-2-0-2-2-0-2-2-7-5-1-|-2-0-2-2-0-2-2-1-6-|-2-0-2-2-0-2-0-0-3-0-0-3---------|
D|-2-0-2-2-0-2-2-7-5-1-|-2-0-2-2-0-2-2-----|-2-0-2-2-0-2-0-0-3-0-0-3---------|


e|---------------------------------------------------------------------------|
B|---------------------------------------------------------------------------|
G|---------------------------------------------------------------------------|
D|-00-1-0-1-0-1-0-1-0-4--00-1-0-1-0-5-4-3-2----------------------------------|
A|-00-1-0-1-0-1-0-1-0-4--00-1-0-1-0-5-4-3-2----------------------------------|
D|-00-1-0-1-0-1-0-1-0-4--00-1-0-1-0-5-4-3-2----------------------------------|

e|---------------------------------------------------------|-end on----------|
B|---------------------------------------------------------|-----------------|
G|---------------------------------------------------------|-----------------|
D|-0-0-1-0-0-1-0-0-1-0-0-1-0-0-4--0-0-1-0-0-1-0-0-5-4-3-2--|---2-------------|
A|-0-0-1-0-0-1-0-0-1-0-0-1-0-0-4--0-0-1-0-0-1-0-0-5-4-3-2--|---2-------------|
D|-0-0-1-0-0-1-0-0-1-0-0-1-0-0-4--0-0-1-0-0-1-0-0-5-4-3-2--|---2-------------|
Добавлено: 31.08.2015
Другие материалы по этой песне:
  • Аккорды и текст

Страница создана 31.08.2015
http://primanota.ru/turnstile/fazed-out-chords.htm
Привет, Гость.
Предлагаем пройти революционный курс по гитаре.
Подарок от PrimaNota.Ru, забирай!