PrimaNota.ru - самый крупный в мире бесплатный архив песенных текстов, аккордов, табулатур и нот


Turnstile - Drop - таба, видео

Регистрация Запомнить меня
Войти через:  Facebook Google Twitter Vk Yandex Mail.ru

Turnstile - Drop - таба, видео

Печатать
Просмотров: 66
-------------------------------------------------------------------------------
                             Drop - Turnstile - Nonstop Feeling
                                       Hardcore
-------------------------------------------------------------------------------
Tabbed by: Dylan Dunne (Twitter: @dutchg0ld)
E-mail: dylandunne@live.ie

My first tab, there were none here so I said fuck it.

Tuning: D - A - F - C - G - D

Intro (Fig. 1)
e|---------------------------------------------------------------------------|
B|---------------------------------------------------------------------------|
G|---------------------------------------------------------------------------|
D|-9-9-9-9-9------5/6--5/6---------------------------------------------------|  X4
A|-9-9-9-9-9------5/6--5/6---------------------------------------------------|
E|-7-7-7-7-7------3/4--3/4---------------------------------------------------|

Then after drum fill (Fig. 2)
e|---------------------------------------------------------------------------|
B|---------------------------------------------------------------------------|
G|---------6-----------------------6-----------------------------------------|
D|-6-6-6-6-6-5-5-8/9/8-----6-6-6-6-6-5-5-5-5---------------------------------|  X4
A|-6-6-6-6-4-5-5-8/9/8-----6-6-6-6-4-5-5-5-5---------------------------------|
E|-4-4-4-4---3-3-6/7/6-----4-4-4-4---3-3-3-3---------------------------------|

End this little section with:
e|---------------------------------------------------------------------------|
B|---------------------------------------------------------------------------|
G|---------------------------------------------------------------------------|
D|-6-5-4---------------------------------------------------------------------|
A|-6-5-4---------------------------------------------------------------------|
E|-4-3-2---------------------------------------------------------------------|



"No future..." (Fig. 3)
e|---------------------------------------------------------------------------|
B|---------------------------------------------------------------------------|
G|---------5-----------------------------------------------------------------|
D|-4---4---5-----------------------------------------------------------------|  
A|-4---4---3-----------------------------------------------------------------|
E|-2---2---------------------------------------------------------------------|

Play above 7 times then stop on the first chord 
(I like to throw in a slide or something before the next part)


"DROP!" (Fig. 4)
e|---------------------------------------------------------------------------|
B|---------------------------------------------------------------------------|
G|---------------------------------------5-----------------------------------|
D|-6-6-6--4-3-4--6----------6-6-6--4-3-4-5-----------------------------------|  X4
A|-6-6-6--4-3-4--6----------6-6-6--4-3-4-3-----------------------------------|
E|-4-4-4--2-1-2--4----------4-4-4--2-1-2-------------------------------------|


Order:
Fig. 1

Fig. 2

Fig. 3

Fig. 4

Fig. 3

Fig. 4


Thanks for checking this tab out, it's pretty straightforward and I know it could be a little more detailed
but anyone with half a brain can use this to figure the song out...
Buy the album 'Nonstop Feeling' you won't regret it, get it on iTunes or whatever, help the guys out.
Any major corrections or issues or feedback of any kind my email is at the top of the tab. Or if you want
publicly humiliate me my twitter is there also. 
Cheers!


************************************

| /   slide up
| \   slide down
| h   hammer-on
| p   pull-off
| ~   vibrato
| +   harmonic
| x   Mute note
| b   Bend
| pb  Pre-bend
| br  Bend release
| pbr Pre-bend release
| brb Bend release bend

************************************
Добавлено: 03.08.2015
Другие материалы по этой песне:
  • Аккорды и текст

Страница создана 03.08.2015
http://primanota.ru/turnstile/drop-chords.htm
Привет, Гость.
Предлагаем пройти революционный курс по гитаре.
Подарок от PrimaNota.Ru, забирай!