PrimaNota.ru - самый крупный в мире бесплатный архив песенных текстов, аккордов, табулатур и нот


Turnstile - Deathgrip - таба, видео

Регистрация Запомнить меня
Войти через:  Facebook Google Twitter Vk Yandex Mail.ru

Turnstile - Deathgrip - таба, видео

Печатать
Просмотров: 114
-------------------------------------------------------------------------------
                             Deathgrip - Turnstile
-------------------------------------------------------------------------------
Tabbed by:Jef
E-mail:none of your business

This is my first tab, sorry about the horrible timing. I made this based on this video: 

https://www.youtube.com/watch?v=Uaw5rsrekQw

You could use this as a reference for the timing of the notes. I really like this song and it
is super fun to play. So i thought i give a shot and tab it out so other could enjoy playing it 
as well. Hope you can figure it out! 


Tuning: Drop D

Intro (played once)

e|---------------------------------------------------------------------------|
B|---------------------------------------------------------------------------|
G|---------------------------------------------------------------------------|
D|----10-7--7------10-6--6------5--8--7--------------------------------------|
A|----10-7--7------10-6--6------5--8--7--------------------------------------|
E|-0--8--5--5---0--8--4--4---0--3--6--5--------------------------------------|
   x            x            x


e|---------------------------------------------------------------------------|
B|---------------------------------------------------------------------------|
G|---------------------------------------------------------------------------|
D|-4-----5--4------4--------5--4---------------------------------------------|  x 4
A|-4--2--5--4------4-4-4-2--5--4---------------------------------------------|
E|-2--0--3--2------2-2-2-0--3--2---------------------------------------------|
                     x x

After this, play the intro again, followed by verse 1 (You want to talk about the things i said):

e|---------------------------------------------------------------------------|
B|---------------------------------------------------------------------------|
G|---------------------------------------------------------------------------|
D|-77--7-6-7-6-33-3--3-------------------------------------------------------|
A|-77--7-6-7-6-33-3--3-------------------------------------------------------|
E|-55--5-4-5-4-11-1--1-00000000000000000000000000000000000000000000000000000-|
                      xxxxxxxxxxxxxxxxxxxxxxxxxxxxxxxxxxxxxxxxxxxxxxxxxxxxxx

(not the exact amount of palmuted open notes, just time it)


e|---------------------------------------------------------------------------|
B|---------------------------------------------------------------------------|
G|---------------------------------------------------------------------------|
D|-77--7-6-7-10-10-10-9-7----------------------------------------------------|
A|-77--7-6-7-10-10-10-9-7--2-------------------2----2----2--------2--2--2--2-|
E|-55--5-4-5-8--8--8--7-5--0000000000000000000000000000000000000000000000000-|
                           xxxxxxxxxxxxxxxxxxxx xxxx xxxx xxxxxxxx xx xx xx

(again, the timing and the amount of notes arne't correct, just listen to the song)

Play verse 1 two times, en repeat the fast palmuted stuff with accents 3 more times, end with: 

e|---------------------------------------------------------------------------|
B|---------------------------------------------------------------------------|
G|---------------------------------------------------------------------------|
D|-4-----6---5---3-----------------------------------------------------------|
A|-4-----6---5---3-2---------------------------------------------------------|
E|-2---0-4-0-3-0-1-0---------------------------------------------------------|
       x   x   x

Verse 2 (You want to change me, you want me to be): 

e|---------------------------------------------------------------------------|
B|---------------------------------------------------------------------------|
G|---------------------------------------------------------------------------|
D|-7---7---8---7-----5-4-5-4----7---7---8---11---10-11-10-9------------------|
A|-7---7---8---7-----5-4-5-4----7---7---8---11---10-11-10-9------------------|
E|-5-0-5-0-6-0-5-0---3-2-3-2----5-0-5-0-6-0-9--0-8--9--8--7------------------|
     x   x   x   x                x   x   x    x x  x  x  x

e|---------------------------------------------------------------------------|
B|---------------------------------------------------------------------------|
G|---------------------------------------------------------------------------|
D|-7---7---8---7-----5-4-5-4-------7-7----6-6--------------------------------|
A|-7---7---8---7-----5-4-5-4-------7-7----6-6--------------------------------|
E|-5-0-5-0-6-0-5-0---3-2-3-2-------5-5----4-4--------------------------------|
     x   x   x   x                

Play verse 2 two times, and then repeat verse 1 again (2 times).
But at the end, replace the second part of the verse with:

e|---------------------------------------------------------------------------|
B|---------------------------------------------------------------------------|
G|---------------------------------------------------------------------------|
D|-77--7--5--10-10--10-9-7---------------------------------------------------|
A|-77--7--5--10-10--10-9-7---------------------------------------------------|
E|-55--5--3--8--8---8--7-5---------------------------------------------------|

Breakdown (bitch!)

e|---------------------------------------------------------------------------|
B|---------------------------------------------------------------------------|
G|---------------------------------------------------------------------------|
D|-8---------------8-5-9-8-5-8---------8-9---3-4-3---------------------------|
A|-8--5-5-5-5-5-5--8-5-9-8-5-8--5-5-5--8-9---3-4-3---------------------------|
E|-6--3-3-3-3-3-3--6-3-7-6-3-6--3-3-3--6-7-0-1-2-1---------------------------|
      x x x x x x               x x x      x

Repeat 4 times (I think), followed by:

e|---------------------------------------------------------------------------|
B|---------------------------------------------------------------------------|
G|---------------------------------------------------------------------------|
D|-8-------7-------7------7---------5------------4---------------------------|
A|-8-------7---7-7-7--7-7-7---------5------------4------4-4-4-4--------------|
E|-6-------5---5-5-5--5-5-5---------3------------2------2-2-2-2--------------|
               x x    x x                               x x x x

Back again at verse 2 (you want to change me, you want me to be)
Then the final breakdown (no more!):

e|---------------------------------------------------------------------------|
B|---------------------------------------------------------------------------|
G|---------------------------------------------------------------------------|
D|-4-----------4---5----------------4---------------8------------------------|
A|-4---4/5/4---4---5---4-3-4-3------4---4/5/4---5---8---7-8-7-5--------------|
E|-2-0-2/3/2-0-2-0-3-0-2-1-2-1------2-0-2/3/2-0-3-0-6-0-5-6-5-3--------------|
     x       x   x   x x x x x        x       x   x   x x x x x   
  

************************************

| /   slide up
| \   slide down
| h   hammer-on
| p   pull-off
| ~   vibrato
| +   harmonic
| x   Mute note
| b   Bend
| pb  Pre-bend
| br  Bend release
| pbr Pre-bend release
| brb Bend release bend

************************************
Добавлено: 31.08.2015
Другие материалы по этой песне:
  • Аккорды и текст

Страница создана 31.08.2015
http://primanota.ru/turnstile/deathgrip-chords.htm
Привет, Гость.
Предлагаем пройти революционный курс по гитаре.
Подарок от PrimaNota.Ru, забирай!