PrimaNota.ru - самый крупный в мире бесплатный архив песенных текстов, аккордов, табулатур и нот


Turnstile - Cant Deny It - таба, видео

Регистрация Запомнить меня
Войти через:  Facebook Google Twitter Vk Yandex Mail.ru

Turnstile - Cant Deny It - таба, видео

Печатать
Просмотров: 52
Turnstile
"Can't Deny It"
From the 2015 album "Nonstop Feeling"
Tuning: Drop D (DADGBE)

Intro (light overdrive)
    G           F
e|-------------------------------------------|
B|-------------------------------------------|
G|--4-4-4---4---2----------------------------|  x3
D|--5-5-5---5---3----------------------------|
A|--5-5-5---5---3----------------------------|
D|--5-5-5---5---3----------------------------|

(heavy distortion)
    E         F
e|----------------------------------|
B|----------------------------------|
G|----------------------------------|
D|--2----2----3----3----------------|
A|--2----2----3----3----------------|
D|--2----2----3----3----------------|

Verse riff
e|----------------------------------------|
B|----------------------------------------|
G|----------------------------------------| x3
D|----------------------------------------|
A|----------------------------------------|
D|--5--2--0--2----2------0--2--2--5----0--|

e|-------------------------------------|
B|-------------------------------------|
G|-------------------------------------|
D|--2----2----3----3-------------------|
A|--2----2----3----3-------------------|
D|--2--0-2--0-3--0-3-------------------|

Chorus
   G        F
e|-------------------------------------------|
B|-------------------------------------------|
G|-------------------------------------------|  x4
D|--5---5---3---3---3-3----------------------|
A|--5---5---3---3---3-3----------------------|
D|--5---5---3---3---3-3----------------------|

Riff after Chorus
e|----------------------------------------|
B|----------------------------------------|
G|----------------------------------------|
D|--2--2----3----6--6----3---2--2---------|
A|--2--2----3----6--6----3---2--2---------|
D|--2--2--0-3--0-6--6--0-3---2--2---------|

e|-----------------------------------------------------------|
B|-----------------------------------------------------------|
G|-----------------------------------------------------------|
D|--2--2--0-3--0-6--6--0-3----2----2----3----3---------------|
A|--2--2--0-3--0-6--6--0-3----2----2----3----3---------------|
D|--2--2--0-3--0-6--6--0-3----2----2----3----3---------------|


Lead Guitar at the end
e|----------------------------------------|
B|----3-----------------------------------|
G|---------2----1~~~~---------------------|
D|----------------------------------------|
A|----------------------------------------|
D|----------------------------------------| 
Добавлено: 03.08.2015
Другие материалы по этой песне:
  • Аккорды и текст

Страница создана 03.08.2015
http://primanota.ru/turnstile/cant-deny-it-chords.htm
Привет, Гость.
Предлагаем пройти революционный курс по гитаре.
Подарок от PrimaNota.Ru, забирай!