PrimaNota.ru - самый крупный в мире бесплатный архив песенных текстов, аккордов, табулатур и нот


Turnstile - Bring It Back - таба, видео

Регистрация Запомнить меня
Войти через:  Facebook Google Twitter Vk Yandex Mail.ru

Turnstile - Bring It Back - таба, видео

Печатать
Просмотров: 90
-------------------------------------------------------------------------------
                             TURNSTILE - "Bring It Back"
-------------------------------------------------------------------------------
from the album Nonstop Feeling
If you have any suggestions or corrections, email forexesband@gmail.com
Buy the record and go to a show, you'll be doing yourself a favor
turnstilehc.bandcamp.com
also check out my band, forexes.bandcamp.com

Tuning: Drop D

Intro/Verse
e|---------------------------------------------------------------------------|
B|---------------------------------------------------------------------------|
G|---------------------------------------------------------------------------|
D|-3-4-4-3-4-3----3-4-7-4-3-4-9----------------------------------------------| x4
A|-3-4-4-3-4-3-x3-3-4-7-4-3-4-9----------------------------------------------|
D|-3-4-4-3-4-3----3-4-7-4-3-4-9----------------------------------------------|

Pre-Chorus
e|---------------------------------------------------------------------------|
B|---------------------------------------------------------------------------|
G|------4--------------------------------------------------------------------|
D|-8--4-4--------------------------------------------------------------------|
A|-8--4-2--------------------------------------------------------------------|
D|-8--4----------------------------------------------------------------------|

Chorus/Verse
e|---------------------------------------------------------------------------|
B|---------------------------------------------------------------------------|
G|---------------------------------------------------------------------------|
D|-3-4-4-3-4-3----3-4-7-4-3-4-9----------------------------------------------| x3
A|-3-4-4-3-4-3-x3-3-4-7-4-3-4-9----------------------------------------------|
D|-3-4-4-3-4-3----3-4-7-4-3-4-9----------------------------------------------|

Pre-Chorus
e|---------------------------------------------------------------------------|
B|---------------------------------------------------------------------------|
G|------4--------------------------------------------------------------------|
D|-8--4-4--------------------------------------------------------------------|
A|-8--4-2--------------------------------------------------------------------|
D|-8--4----------------------------------------------------------------------|

Chorus
e|---------------------------------------------------------------------------|
B|---------------------------------------------------------------------------|
G|---------------------------------------------------------------------------|
D|-3-4-4-3-4-3----3-4-7-4-3-4-9----------------------------------------------|
A|-3-4-4-3-4-3-x3-3-4-7-4-3-4-9----------------------------------------------|
D|-3-4-4-3-4-3----3-4-7-4-3-4-9----------------------------------------------|

Bridge
e|---------------------------------------------------------------------------|
B|---------------------------------------------------------------------------|
G|---------------------------------------------------------------------------|
D|-3-4-3-1-3-3-3-3-1-0-0-0-1-0-0-0-0-----------------------------------------| x8
A|-3-4-3-1-3-3-3-3-1-0-0-0-1-0-0-0-0-----------------------------------------|
D|-3-4-3-1-3-3-3-3-1-0-0-0-1-0-0-0-0-----------------------------------------|
             . . .     . .     . . .

e|---------------------------------------------------------------------------|
B|---------------------------------------------------------------------------|
G|---------------------------------------------------------------------------|
D|-3-4-3-1-3-3-6-3-1-0-0-0-1-0-0-0-0-----------------------------------------| x4
A|-3-4-3-1-3-3-6-3-1-0-0-0-1-0-0-0-0-----------------------------------------|
D|-3-4-3-1-3-3-6-3-1-0-0-0-1-0-0-0-0-----------------------------------------|
             .   .     . .     . . .

Chorus
e|---------------------------------------------------------------------------|
B|---------------------------------------------------------------------------|
G|---------------------------------------------------------------------------|
D|-3-4-4-3-4-3----3-4-7-4-3-4-9----------------------------------------------|
A|-3-4-4-3-4-3-x3-3-4-7-4-3-4-9----------------------------------------------|
D|-3-4-4-3-4-3----3-4-7-4-3-4-9----------------------------------------------|
Добавлено: 31.08.2015
Другие материалы по этой песне:
  • Аккорды и текст

Страница создана 31.08.2015
http://primanota.ru/turnstile/bring-it-back-chords.htm
Привет, Гость.
Предлагаем пройти революционный курс по гитаре.
Подарок от PrimaNota.Ru, забирай!