PrimaNota.ru - самый крупный в мире бесплатный архив песенных текстов, аккордов, табулатур и нот


Turnstile - Blue By You - таба, видео

Регистрация Запомнить меня
Войти через:  Facebook Google Twitter Vk Yandex Mail.ru

Turnstile - Blue By You - таба, видео

Печатать
Просмотров: 278
Уроки эстрадного вокала в Санкт-Петербурге
-------------------------------------------------------------------------------
                             TURNSTILE - "Blue By You"
-------------------------------------------------------------------------------
from the album Nonstop Feeling
If you have any suggestions or corrections, email forexesband@gmail.com
Buy the record and go to a show, you'll be doing yourself a favor
turnstilehc.bandcamp.com
also check out my band, forexes.bandcamp.com

Tuning: Drop D

Verse
e|---------------------------------------------------------------------------|
B|---------------------------------------------------------------------------|
G|-------------7-------------------------------------------------------------|
D|-5-9-10-10-5-7-6-6-5-9-10--------------------------------------------------|
A|-5-9-10-10-5-5-6-6-5-9-10--------------------------------------------------|
D|-5-9-10-10-5---6-6-5-9-10--------------------------------------------------|

Chorus
e|---------------------------------------------------------------------------|
B|---------------------------------------------------------------------------|
G|---------------------------------------------------------------------------|
D|-5-9-10-6------------------------------------------------------------------|
A|-5-9-10-6--x2--------------------------------------------------------------|
D|-5-9-10-6------------------------------------------------------------------|

Verse
e|---------------------------------------------------------------------------|
B|---------------------------------------------------------------------------|
G|-------------7-------------------------------------------------------------|
D|-5-9-10-10-5-7-6-6-5-9-10--------------------------------------------------|
A|-5-9-10-10-5-5-6-6-5-9-10--------------------------------------------------|
D|-5-9-10-10-5---6-6-5-9-10--------------------------------------------------|

Chorus
e|---------------------------------------------------------------------------|
B|---------------------------------------------------------------------------|
G|---------------------------------------------------------------------------|
D|-5-9-10-6------------------------------------------------------------------|
A|-5-9-10-6--x4--------------------------------------------------------------|
D|-5-9-10-6------------------------------------------------------------------|

End
e|---------------------------------------------------------------------------|
B|---------------------------------------------------------------------------|
G|---------------------------------------------------------------------------|
D|-2--------------------------------------------------------------------------|
A|-2--------------------------------------------------------------------------|
D|-2--------------------------------------------------------------------------|

Добавлено: 31.08.2015
Другие материалы по этой песне:
  • Аккорды и текст

Страница создана 31.08.2015
http://primanota.ru/turnstile/blue-by-you-chords.htm
Привет, Гость.
Предлагаем пройти революционный курс по гитаре.
Подарок от PrimaNota.Ru, забирай!