PrimaNota.ru - самый крупный в мире бесплатный архив песенных текстов, аккордов, табулатур и нот


Turnstile - Bleach Temple - таба, видео

Регистрация Запомнить меня
Войти через:  Facebook Google Twitter Vk Yandex Mail.ru

Turnstile - Bleach Temple - таба, видео

Печатать
Просмотров: 126
-------------------------------------------------------------------------------
                             TURNSTILE - "Bleach Temple"
-------------------------------------------------------------------------------
from the album Nonstop Feeling
If you have any suggestions or corrections, email forexesband@gmail.com
Buy the record and go to a show, you'll be doing yourself a favor
turnstilehc.bandcamp.com
also check out my band, forexes.bandcamp.com

Tuning: DADABe

e|---------------------------------------------------------------------------|
B|---------------------------------------------------------------------------|
A|-------0----------0---------------0------------0---------------------------|
D|-----4---4------5---5--x3-------7---7--------9---9-------------------------| x3
A|---5----------6---------------8-----------10-------------------------------|
D|-7----------8--------------10----------12----------------------------------|

e|------------------|---------------------------------------------------------|
B|------------------|---------------------------------------------------------|
A|-7-6--------6---8-|-7-6-----------------------------------------------------|
D|-7-6-1-x4---6---8-|-7-6-1--x4-----------------------------------------------|
A|-5-4-1------4---6-|-5-4-1---------------------------------------------------|
D|-----1----0---0---|-----1---------------------------------------------------|
       .    .   .         .

e|---------------------------------------------------------------------------|
B|---------------------------------------------------------------------------|
A|-------0----------0----------0----------0----------------------------------|
D|-----4---4------5---5------6---6------5---5-x3-----------------------------|
A|---5----------6----------7----------6--------------------------------------|
D|-7----------8----------9----------8----------------------------------------|

e|---------------------------------------------------------------------------|
B|---------------------------------------------------------------------------|
A|-------0----------0-----------0------------0-------------------------------|
D|-----4---4------5---5-------7---7--------9---9-----------------------------| 
A|---5----------6-----------8-----------10-----------------------------------|
D|-7----------8----------10----------12--------------------------------------|

e|------------------|---------------------------------------------------------|
B|------------------|---------------------------------------------------------|
A|-7-6--------6---8-|-7-6-----------------------------------------------------|
D|-7-6-1-x4---6---8-|-7-6-1--x4-----------------------------------------------|
A|-5-4-1------4---6-|-5-4-1---------------------------------------------------|
D|-----1----0---0---|-----1---------------------------------------------------|
       .    .   .         .
Добавлено: 31.08.2015
Другие материалы по этой песне:
  • Аккорды и текст

Страница создана 31.08.2015
http://primanota.ru/turnstile/bleach-temple-chords.htm
Привет, Гость.
Предлагаем пройти революционный курс по гитаре.
Подарок от PrimaNota.Ru, забирай!