PrimaNota.ru - самый крупный в мире бесплатный архив песенных текстов, аккордов, табулатур и нот


Turnstile - Bad Wave - таба, видео

Регистрация Запомнить меня
Войти через:  Facebook Google Twitter Vk Yandex Mail.ru

Turnstile - Bad Wave - таба, видео

Печатать
Просмотров: 98
Уроки эстрадного вокала в Санкт-Петербурге
-------------------------------------------------------------------------------
                             TURNSTILE - "Bad Wave"
-------------------------------------------------------------------------------
from the album Nonstop Feeling
If you have any suggestions or corrections, email forexesband@gmail.com
Buy the record and go to a show, you'll be doing yourself a favor
turnstilehc.bandcamp.com
also check out my band, forexes.bandcamp.com

Tuning: Drop D

Intro/Verse
e|---------------------------------------------------------------------------|
B|---------------------------------------------------------------------------|
G|---------------------------------------------------------------------------|
D|-0-0-1-2-1-0-1-0-5-4-2-2-2-2--0-0-1-2-1-0-1-0-5-4-2-4-5-2--x6--------------|
A|-0-0-1-2-1-0-1-0-5-4-2-2-2-2--0-0-1-2-1-0-1-0-5-4-2-4-5-2------------------|
D|-0-0-1-2-1-0-1-0-5-4-2-2-2-2--0-0-1-2-1-0-1-0-5-4-2-4-5-2------------------|
   . .       .   .       .      . .       .   .     . . .    

Pre-Chorus
e|---------------------------------------------------------------------------|
B|---------------------------------------------------------------------------|
G|---------------------------------------------------------------------------|
D|-10---7--------------------------------------------------------------------|
A|-10---7--------------------------------------------------------------------|
D|-10---7--------------------------------------------------------------------|

Chorus/Verse
e|---------------------------------------------------------------------------|
B|---------------------------------------------------------------------------|
G|---------------------------------------------------------------------------|
D|-5-8-4-4-------------------------------------------------------------------|
A|-5-8-4-4--x16--------------------------------------------------------------|
D|-5-8-4-4-------------------------------------------------------------------|

Pre-Chorus
e|---------------------------------------------------------------------------|
B|---------------------------------------------------------------------------|
G|---------------------------------------------------------------------------|
D|-10---7--------------------------------------------------------------------|
A|-10---7--------------------------------------------------------------------|
D|-10---7--------------------------------------------------------------------|

Solo
e|---------------------------------------------------------------------------|
B|---------------------------------------------------------------------------|
G|---------------------------------------------------------------------------|
D|---------------------------------------------------------------------------|
A|-9~-9~-9h10p9-7-12-9b-7-12-9b-7-12-9b-7-5~-7-8-8-10-10-8-8-10-10-12-12-----|
D|---------------------------------------------------------------------------|

e|---------------------------------------------------------------------------|
B|---------------------------------------------------------------------------|
G|---------------------------------------------------------------------------|
D|---------------------------------------------------------------------------|
A|-10-10-12-12-13-13-12-12-13-13-15-15-13-13-15-15--16b--14b-----------------|
D|---------------------------------------------------------------------------|

Outro
e|---------------------------------------------------------------------------|
B|---------------------------------------------------------------------------|
G|---------------------------------------------------------------------------|
D|-0-0-1-2-1-1-1-1-1-1-1-1-1-1-1-2-------------------------------------------| x8
A|-0-0-1-2-1-1-1-1-1-1-1-1-1-1-1-2-------------------------------------------|
D|-0-0-1-2-1-1-1-1-1-1-1-1-1-1-1-2-------------------------------------------|
   . .       . . . . . .   . . 
Добавлено: 31.08.2015
Другие материалы по этой песне:
  • Аккорды и текст

Страница создана 31.08.2015
http://primanota.ru/turnstile/bad-wave-chords.htm
Привет, Гость.
Предлагаем пройти революционный курс по гитаре.
Подарок от PrimaNota.Ru, забирай!