PrimaNota.ru - самый крупный в мире бесплатный архив песенных текстов, аккордов, табулатур и нот


Turnstile - Addicted - таба, видео

Регистрация Запомнить меня
Войти через:  Facebook Google Twitter Vk Yandex Mail.ru

Turnstile - Addicted - таба, видео

Печатать
Просмотров: 94
Уроки эстрадного вокала в Санкт-Петербурге
-------------------------------------------------------------------------------
                             TURNSTILE - "Addicted"
-------------------------------------------------------------------------------
from the album Nonstop Feeling
If you have any suggestions or corrections, email forexesband@gmail.com
Buy the record and go to a show, you'll be doing yourself a favor
turnstilehc.bandcamp.com
also check out my band, forexes.bandcamp.com

Tuning: Drop D

Intro
e|---------------------------------------------------------------------------|
B|---------------------------------------------------------------------------|
G|-7-7-5-7-7-5---------------------------------------------------------------|
D|-7-7-5-7-7-5-4-------------------------------------------------------------|
A|-5-5-3-5-5-3-4-------------------------------------------------------------|
D|-------------4-------------------------------------------------------------|

Verse
e|---------------------------------------------------------------------------|
B|---------------------------------------------------------------------------|
G|-7--------7-8-9------------------------------------------------------------|
D|-7-7-6----7-8-9------------------------------------------------------------| x3
A|-5-7-6-x3-5-6-7------------------------------------------------------------|
D|---7-6---------------------------------------------------------------------|

Chorus
e|---------------------------------------------------------------------------|
B|---------------------------------------------------------------------------|
G|---------------------------------------------------------------------------|
D|-0-000-0-3-4-0-000-0-1-4-3-------------------------------------------------| x4
A|-0-000-0-3-4-0-000-0-1-4-3-------------------------------------------------|
D|-0-000-0-3-4-0-000-0-1-4-3-------------------------------------------------|

Verse
e|---------------------------------------------------------------------------|
B|---------------------------------------------------------------------------|
G|-7--------7-8-9------------------------------------------------------------|
D|-7-7-6----7-8-9------------------------------------------------------------| x2
A|-5-7-6-x3-5-6-7------------------------------------------------------------|
D|---7-6---------------------------------------------------------------------|

Chorus
e|---------------------------------------------------------------------------|
B|---------------------------------------------------------------------------|
G|---------------------------------------------------------------------------|
D|-0-000-0-3-4-0-000-0-1-4-3-------------------------------------------------| x4
A|-0-000-0-3-4-0-000-0-1-4-3-------------------------------------------------|
D|-0-000-0-3-4-0-000-0-1-4-3-------------------------------------------------|

Bridge
e|---------------------------------------------------------------------------|
B|---------------------------------------------------------------------------|
G|-8-5-5-5-8-5-5-5-8-8----8-5-5-5-8-5-5-5------------------------------------|
D|-8-5-5-5-8-5-5-5-8-8-x3-8-5-5-5-8-5-5-5-5-2--------------------------------|
A|-6-3-3-3-6-3-3-3-6-6----6-3-3-3-6-3-3-3-5-2--------------------------------|
D|----------------------------------------5-2--------------------------------|

Outro
e|---------------------------------------------------------------------------|
B|---------------------------------------------------------------------------|
G|---------------------------------------------------------------------------|
D|-0-0-1-5-2-2-2-2-----------------------------------------------------------|
A|-0-0-1-5-2-2-2-2-----------------------------------------------------------|
D|-0-0-1-5-2-2-2-2-----------------------------------------------------------|
Добавлено: 31.08.2015
Другие материалы по этой песне:
  • Аккорды и текст

Страница создана 31.08.2015
http://primanota.ru/turnstile/addicted-chords.htm
Привет, Гость.
Предлагаем пройти революционный курс по гитаре.
Подарок от PrimaNota.Ru, забирай!