PrimaNota.ru - самый крупный в мире бесплатный архив песенных текстов, аккордов, табулатур и нот


Turnstile - 7 - таба, видео

Регистрация Запомнить меня
Войти через:  Facebook Google Twitter Vk Yandex Mail.ru

Turnstile - 7 - таба, видео

Печатать
Просмотров: 114
-------------------------------------------------------------------------------
                             TURNSTILE - "7"
-------------------------------------------------------------------------------
from the ep Step 2 Rhythm 
If you have any suggestions or corrections, email forexesband@gmail.com
Buy the record and go to a show, you'll be doing yourself a favor
turnstilehc.bandcamp.com
also check out my band, forexes.bandcamp.com

Tuning: Drop D

Guitar 1
e|---------------------------------------------------------------------------|
B|---------------------------------------------------------------------------|
G|---7--------------7--------------------------------------------------------|
D|-----7-5-4~---------7-5-4~-1-1---------------------------------------------|
A|-5----------3-7-5----------1-1---------------------------------------------|
D|---------------------------1-1---------------------------------------------|

Guitar 2
e|---------------------------------------------------------------------------|
B|---------------------------------------------------------------------------|
G|---------------------------------------------------------------------------|
D|-0-------------------------1-1---------------------------------------------|
A|-0-------------------------1-1---------------------------------------------|
D|-0-------------------------1-1---------------------------------------------|

Both Guitars
e|---------------------------------------------------------------------------|
B|---------------------------------------------------------------------------|
G|---------------------------------------------------------------------------|
D|-1-1-0--1--1-0--1-1-1-0-1-1-0----------------------------------------------|
A|-1-1-0--1--1-0--1-1-1-0-1-1-0----------------------------------------------|
D|-1-1-0--1--1-0--1-1-1-0-1-1-0----------------------------------------------|

Guitar 1
e|---------------------------------------------------------------------------|
B|---------------------------------------------------------------------------|
G|---7--------------7--------------------------------------------------------|
D|-----7-5-4~---------7-5-4~-1-1---------------------------------------------|
A|-5----------3-7-5----------1-1---------------------------------------------|
D|---------------------------1-1---------------------------------------------|

Guitar 2
e|---------------------------------------------------------------------------|
B|---------------------------------------------------------------------------|
G|---------------------------------------------------------------------------|
D|-0-------------------------1-1---------------------------------------------|
A|-0-------------------------1-1---------------------------------------------|
D|-0-------------------------1-1---------------------------------------------|

Both Guitars
e|---------------------------------------------------------------------------|
B|---------------------------------------------------------------------------|
G|---------------------------------------------5-5---------------------------|
D|-0-0-0-0-0-1-1-0-0-1-1-1-0-0-1-1-0-0-0-0-0-0-5-5-1-0-----------------------|
A|-0-0-0-0-0-1-1-0-0-1-1-1-0-0-1-1-0-0-0-0-0-0-3-3-1-0-----------------------|
D|-0-0-0-0-0-1-1-0-0-1-1-1-0-0-1-1-0-0-0-0-0-0-----1-0-----------------------|

Guitar 1
e|---------------------------------------------------------------------------|
B|---------------------------------------------------------------------------|
G|---7-----------------------------------------------------------------------|
D|-----7-5-4~----------------------------------------------------------------|
A|-5----------6-6------------------------------------------------------------|
D|---------------------------------------------------------------------------|

Guitar 2
e|---------------------------------------------------------------------------|
B|---------------------------------------------------------------------------|
G|---------------------------------------------------------------------------|
D|-0----------1-1------------------------------------------------------------|
A|-0----------1-1------------------------------------------------------------|
D|-0----------1-1------------------------------------------------------------|
Добавлено: 31.08.2015
Другие материалы по этой песне:
  • Аккорды и текст

Страница создана 31.08.2015
http://primanota.ru/turnstile/7-chords.htm
Привет, Гость.
Предлагаем пройти революционный курс по гитаре.
Подарок от PrimaNota.Ru, забирай!