PrimaNota.ru - самый крупный в мире бесплатный архив песенных текстов, аккордов, табулатур и нот


Turnover - Pray For Me - таба, видео

Регистрация Запомнить меня
Войти через:  Facebook Google Twitter Vk Yandex Mail.ru

Turnover - Pray For Me - таба, видео

Печатать
Просмотров: 85
-------------------------------------------------------------------------------
                             SONG NAME - Band Name
-------------------------------------------------------------------------------
Tabbed by: Cole Meyer
E-mail: colemeyer@g.ucla.edu

Tuning: Standard

e|--------------------------------------------|(4x)----------------------------|
B|-----------------------------2--------------|--------------------------------|
G|---------------------------2---2------2-----|--------------------------------|
D|---0-4/5\4p0------0-----0----------2---2----|----77777x----------------------|
A|----------------2---2------------0----------|----77777x----------------------|
E|-3------------0--------------------------(3)|----55555x----------------------|


************************************

| /   slide up
| \   slide down
| h   hammer-on
| p   pull-off
| ~   vibrato
| +   harmonic
| x   Mute note
| b   Bend
| pb  Pre-bend
| br  Bend release
| pbr Pre-bend release
| brb Bend release bend

************************************
Добавлено: 03.07.2015
Другие материалы по этой песне:
  • Аккорды и текст

Страница создана 03.07.2015
http://primanota.ru/turnover/pray-for-me-chords.htm
Привет, Гость.
Предлагаем пройти революционный курс по гитаре.
Подарок от PrimaNota.Ru, забирай!