PrimaNota.ru - самый крупный в мире бесплатный архив песенных текстов, аккордов, табулатур и нот


Turnover - Hello Euphoria - таба, видео

Регистрация Запомнить меня
Войти через:  Facebook Google Twitter Vk Yandex Mail.ru

Turnover - Hello Euphoria - таба, видео

Печатать
Просмотров: 131
----------------------------------------------------------------------------------------------------
                                  Turnover - Hello Euphoria      
----------------------------------------------------------------------------------------------------

Band: Turnover
Song: Hello Euphoria
Album: Peripheral Vision
Track: 4

Tabbed by: AsILayDying504
Email: mdl4208@aol.com

Tuning: Standard E (EADGBE)



CAPO ON FRET 4

**** This tab is in reference to the capo... 0 = FRET 4 ****

>> This is how they play it live.



[0:00 - 0:32]


E|-----------------------------------------------------------|
B|--5-5--5-5-5--5-5-5--5-5-5--5-5-5--5-5-5--5-5-5--5-5-5--5--|  x 4
G|--5-5--5-5-5--5-5-5--5-5-5--5-5-5--5-5-5--5-5-5--5-5-5--5--|
D|--0-0--0-0-0--0-0-0--0-0-0--3-3-3--2-2-2--0-0-0--2-2-2--2--|
A|--5-5--5-5-5--0-0-0--0-0-0--3-3-3--3-3-3--3-3-3--3-3-3--3--|
E|-----------------------------------------------------------|



[0:32 - 0:47]


GUITAR 1

E|-------------------------------------------------------------------|
B|--5-5-5-5-5-5-5-5-5-5-5-5-5-5-5-5-5-5-5-5-5-5-5-5-5-5-5-5-5-5-5-5--|  x 2
G|--5-5-5-5-5-5-5-5-5-5-5-5-5-5-5-5-5-5-5-5-5-5-5-5-5-5-5-5-5-5-5-5--|
D|--0-0-0-0-0-0-0-0-0-0-0-0-0-0-0-0-x-x-x-x-x-x-x-0-0-0-0-2-2-2-2-2--|
A|--5-5-5-5-5-5-5-5-0-0-0-0-0-0-0-0-3-3-3-3-3-3-3-3-3-3-3-3-3-3-3-3--|
E|-------------------------------------------------------------------|



GUITAR 2

E|------10-------10-------8-------8--------8------8----------8-------8----|
B|----8----8---8----8---8---8---8---8---10---10-------10-8-----8---8---8--|  x 2
G|--9--------9--------9-------9-------9---------9---9------9-----9--------|
D|------------------------------------------------------------------------|
A|------------------------------------------------------------------------|
E|------------------------------------------------------------------------|



[0:47 - 1:17]


GUITAR 1

E|-----------------------------------------------------------|
B|--5-5--5-5-5--5-5-5--5-5-5--5-5-5--5-5-5--5-5-5--5-5-5--5--|  x 4
G|--5-5--5-5-5--5-5-5--5-5-5--5-5-5--5-5-5--5-5-5--5-5-5--5--|
D|--0-0--0-0-0--0-0-0--0-0-0--3-3-3--2-2-2--0-0-0--2-2-2--2--|
A|--5-5--5-5-5--0-0-0--0-0-0--3-3-3--3-3-3--3-3-3--3-3-3--3--|
E|-----------------------------------------------------------|



GUITAR 2 (Comes in at 1:02)

E|-------5----3---------0----0--|
B|-----------------3--3----3----|  x 4
G|--5--5----5----5--------------|
D|------------------------------|
A|------------------------------|
E|------------------------------|



[1:17 - 1:32]


GUITAR 1

E|---------------------------------------------------------|
B|--5~----5~-----5~----5~--5~--5~----5~----5~----5-5--5-5--|
G|--5~----5~-----5~----5~--5~--5~----5~----5~----5-5--5-5--|
D|--0~----0~-----x-----0~--2~--0~----0~----x-----2-2--2-2--|
A|--5~----0~-----3~----3~--3~--5~----0~----3~----3-3--3-3--|
E|---------------------------------------------------------|



GUITAR 2

E|--10~-----8~--------------------10~-----8~----------------------|
B|-----------------10~-----8~--------------------10~-----8~-------|
G|----------------------------------------------------------------|
D|----------------------------------------------------------------|
A|----------------------------------------------------------------|
E|----------------------------------------------------------------|



[1:32 - 1:47]


GUITAR 1

E|-------------------------------------------------------------------|
B|--5-5-5-5-5-5-5-5-5-5-5-5-5-5-5-5-5-5-5-5-5-5-5-5-5-5-5-5-5-5-5-5--|  x 2
G|--5-5-5-5-5-5-5-5-5-5-5-5-5-5-5-5-5-5-5-5-5-5-5-5-5-5-5-5-5-5-5-5--|
D|--0-0-0-0-0-0-0-0-0-0-0-0-0-0-0-0-x-x-x-x-x-x-x-0-0-0-0-2-2-2-2-2--|
A|--5-5-5-5-5-5-5-5-0-0-0-0-0-0-0-0-3-3-3-3-3-3-3-3-3-3-3-3-3-3-3-3--|
E|-------------------------------------------------------------------|



GUITAR 2

E|------10-------10-------8-------8--------8------8----------8-------8----|
B|----8----8---8----8---8---8---8---8---10---10-------10-8-----8---8---8--|  x 2
G|--9--------9--------9-------9-------9---------9---9------9-----9--------|
D|------------------------------------------------------------------------|
A|------------------------------------------------------------------------|
E|------------------------------------------------------------------------|



[1:47 - 2:18]


GUITAR 1

E|-----------------------------------------------------------|
B|--5-5--5-5-5--5-5-5--5-5-5--5-5-5--5-5-5--5-5-5--5-5-5--5--|  x 4
G|--5-5--5-5-5--5-5-5--5-5-5--5-5-5--5-5-5--5-5-5--5-5-5--5--|
D|--0-0--0-0-0--0-0-0--0-0-0--3-3-3--2-2-2--0-0-0--2-2-2--2--|
A|--5-5--5-5-5--0-0-0--0-0-0--3-3-3--3-3-3--3-3-3--3-3-3--3--|
E|-----------------------------------------------------------|



GUITAR 2 (Comes in at 2:02)

E|-------5----3---------0----0--|
B|-----------------3--3----3----|  x 4
G|--5--5----5----5--------------|
D|------------------------------|
A|------------------------------|
E|------------------------------|



[2:18 - 2:50]


GUITAR 1

E|-------------------------------------------------------------------|
B|--5-5-5-5-5-5-5-5-5-5-5-5-5-5-5-5-5-5-5-5-5-5-5-5-5-5-5-5-5-5-5-5--|  x 4
G|--5-5-5-5-5-5-5-5-5-5-5-5-5-5-5-5-5-5-5-5-5-5-5-5-5-5-5-5-5-5-5-5--|
D|--0-0-0-0-0-0-0-0-0-0-0-0-0-0-0-0-x-x-x-x-x-x-x-0-0-0-0-2-2-2-2-2--|
A|--5-5-5-5-5-5-5-5-0-0-0-0-0-0-0-0-3-3-3-3-3-3-3-3-3-3-3-3-3-3-3-3--|
E|-------------------------------------------------------------------|
 |
 |
E|------|
B|--5~--|
G|--5~--|
D|--2~--|
A|--3~--|
E|------|



GUITAR 2

E|------10-------10-------8-------8--------8------8----------8-------8----|
B|----8----8---8----8---8---8---8---8---10---10-------10-8-----8---8---8--|  x 4
G|--9--------9--------9-------9-------9---------9---9------9-----9--------|
D|------------------------------------------------------------------------|
A|------------------------------------------------------------------------|
E|------------------------------------------------------------------------|
 |
 |
E|------|
B|--8~--|
G|------|
D|------|
A|------|
E|------|



[2:50 - 3:20]


GUITAR 1

E|--0-0-0-0-0-0-0-0-0-0-0-0-0-0-0-0-0-0-0-0-0-0-0-0-0-0-0-0-0-0-0-0--|
B|--1-1-1-1-1-1-1-1-1-1-1-1-1-1-1-1-1-1-1-1-1-1-1-1-1-1-1-1-1-1-1-1--|  x 4
G|--0-0-0-0-0-0-0-0-0-0-0-0-0-0-0-0-0-0-0-0-0-0-0-0-0-0-0-0-0-0-0-0--|
D|--2-2-2-2-2-2-2-2-2-2-2-2-2-2-2-2-0-0-0-0-0-0-0-0-0-0-0-0-0-0-0-0--|
A|--0-0-0-0-0-0-0-0-3-3-3-3-3-3-3-3-2-2-2-2-2-2-2-2-2-2-2-2-2-2-2-2--|
E|----------------------------------3-3-3-3-3-3-3-3-3-3-3-3-3-3-3-3--|



GUITAR 2 (Comes in at 3:05)

E|--------5-5-5-3-3-3-------0-0-0-0--|
B|--------------------3-3-3----------|  x 4
G|--5-5-5----------------------------|
D|-----------------------------------|
A|-----------------------------------|
E|-----------------------------------|



[3:20 - 3:35]


GUITAR 1

E|--0-0-0-0-0-0-0-0-0-0-0-0-0-0-0-0-0-0-0-0-0-0-0-0-0-0-0-0-0-0-0-0--|
B|--1-1-1-1-1-1-1-1-1-1-1-1-1-1-1-1-1-1-1-1-1-1-1-1-1-1-1-1-1-1-1-1--|  x 2
G|--0-0-0-0-0-0-0-0-0-0-0-0-0-0-0-0-0-0-0-0-0-0-0-0-0-0-0-0-0-0-0-0--|
D|--2-2-2-2-2-2-2-2-2-2-2-2-2-2-2-2-0-0-0-0-0-0-0-0-0-0-0-0-0-0-0-0--|
A|--0-0-0-0-0-0-0-0-3-3-3-3-3-3-3-3-2-2-2-2-2-2-2-2-2-2-2-2-2-2-2-2--|
E|----------------------------------3-3-3-3-3-3-3-3-3-3-3-3-3-3-3-3--|
 | 
 |
E|--0~--|
B|--1~--|
G|--0~--|
D|--2~--|
A|--0~--|
E|------|



GUITAR 2

E|------10-------10-------8-------8--------8------8----------8-------8----|
B|----8----8---8----8---8---8---8---8---10---10-------10-8-----8---8---8--|  x 2
G|--9--------9--------9-------9-------9---------9---9------9-----9--------|
D|------------------------------------------------------------------------|
A|------------------------------------------------------------------------|
E|------------------------------------------------------------------------|
 |
 |
E|--8~--|
B|--8~--|
G|--9~--|
D|------|
A|------|
E|------|



[3:35 - 3:48]


E|----------------------------|
B|--5-5--5-5-5--5-5-5--5-5-5--|
G|--5-5--5-5-5--5-5-5--5-5-5--|
D|--0-0--0-0-0--0-0-0--0-0-0--|
A|--5-5--5-5-5--0-0-0--0-0-0--|
E|----------------------------|



[END]



****************************

|  ~    held note
|  x    mute note

****************************
Добавлено: 27.10.2015
Другие материалы по этой песне:
  • Аккорды и текст

Страница создана 27.10.2015
http://primanota.ru/turnover/hello-euphoria-chords.htm
Привет, Гость.
Предлагаем пройти революционный курс по гитаре.
Подарок от PrimaNota.Ru, забирай!