PrimaNota.ru - самый крупный в мире бесплатный архив песенных текстов, аккордов, табулатур и нот


Turnover - Disintergration - таба, видео

Регистрация Запомнить меня
Войти через:  Facebook Google Twitter Vk Yandex Mail.ru

Turnover - Disintergration - таба, видео

Печатать
Просмотров: 89
-------------------------------------------------------------------------------
                             Disintegration - Turnover
-------------------------------------------------------------------------------
Tabbed by:
E-mail:

Tuning: Standard Capo 3
0:00-0:54
e|----------------------------------------------------|
B|--3----3---3---3---3---3---3---3--------------------|
G|--0----0---0---0---0---0---0---0--------------------|
D|2--2-2--2-2-2-2-2-0-0-0-0-0-0-0-0-------------------|
A|----------------------------------------------------|
E|----------------------------------------------------|
0:54-1:18           then the last one  
e|-----------------|---------------------------------------------------|
B|-3---3---3---3---|----3---3--3---3---3---3---3-----------------------|
G|-0---0---0---0---|----0---0--0---0---0---0---0-----------------------|
D|2-2-0-0----------|---2-2-0-0-----------------------------------------|
A|-------2--2-3-3--|----------2-2-3-3-3-3-3-3-3-3----------------------|
E|-----------------|---------------------------------------------------|
1:18-1:40          then end with
e|---------------------------------------------------------------------------|
B|-3---3---3---3--------------------3-3--------------------------------------|
G|-0---0---0---0--------------------0-0--------------------------------------|
D|---------------------------------------------------------------------------|
A|----0-0-3-3-3-3------------------3-3---------------------------------------|
E|3-3------------------------------------------------------------------------|
1:40-2:32
e|---------------------------------------------------------------------------|
B|---3--3--3--3--0--0--0--0--------------------------------------------------|
G|--0--0--0--0--0--0--0--0---------------------------------------------------|
D|-2--2--2--2--0--0--0--0----------------------------------------------------|
A|---------------------------------------------------------------------------|
E|---------------------------------------------------------------------------|


************************************

| /   slide up
| \   slide down
| h   hammer-on
| p   pull-off
| ~   vibrato
| +   harmonic
| x   Mute note
| b   Bend
| pb  Pre-bend
| br  Bend release
| pbr Pre-bend release
| brb Bend release bend

************************************
Добавлено: 22.10.2015
Другие материалы по этой песне:
  • Аккорды и текст

Страница создана 22.10.2015
http://primanota.ru/turnover/disintergration-chords.htm
Привет, Гость.
Предлагаем пройти революционный курс по гитаре.
Подарок от PrimaNota.Ru, забирай!