PrimaNota.ru - самый крупный в мире бесплатный архив песенных текстов, аккордов, табулатур и нот


Turnover - Diazepam - таба, видео

Регистрация Запомнить меня
Войти через:  Facebook Google Twitter Vk Yandex Mail.ru

Turnover - Diazepam - таба, видео

Печатать
Просмотров: 97
----------------------------------------------------------------------------------------------------
                                   Turnover - Diazepam   
----------------------------------------------------------------------------------------------------

Band: Turnover
Song: Diazepam
Album: Peripheral Vision
Track: 6

Tabbed by: AsILayDying504
Email: mdl4208@aol.com

Tuning: Standard E (EADGBE)



[0:00 - 0:22]


GUITAR 1

E|-------------------------------------------------------------------|
B|------0-------0-------0---------------0-------0-------0-------0----|
G|----0---0---0---0---0---0-2/4\2p0---0---0---0---0---0---0---0---0--|
D|--0-------0-------0---------------2-------2-------2-------2--------|
A|-------------------------------------------------------------------|
E|-------------------------------------------------------------------|
 |
 |
E|-------------------------------------------------------------------|
B|------0-------0-------0-------0-------0-------0-------0-------0----|
G|----0---0---0---0---0---0---0---0---0---0---0---0---0---0---0---0--|
D|--0-------0-------0-------0-------2-------2-------2-------2--------|
A|-------------------------------------------------------------------|
E|-------------------------------------------------------------------|



GUITAR 2

(Comes in at 0:13)

E|--0--------------------------------|
B|----3-------3-------3--------------|   x 2
G|------4-2-4---4---4---4---4-2-2-0--|
D|-----------------------------------|
A|-----------------------------------|
E|-----------------------------------|



[0:22 - 0:57]

E|-------------------------------------------------------------------|
B|----3---3---3---3---3---3-3/5\3p0---3---3---3---3---3---3----------|   x 4
G|--0---0---0---0---0---0-----------4---4---4---4---4---4---2/4\2p0--|
D|-------------------------------------------------------------------|
A|-------------------------------------------------------------------|
E|-------------------------------------------------------------------|



[0:57 - 1:14]


GUITAR 1

E|--0--------------------------------|--0--------------------------------|
B|----3-------3-------3--------------|----3-------3-------3--------------|   x 2
G|------4-2-4---4---4---4---4-2-2-0--|------4-2-4---4---4---4---4-2-2-4--|
D|-----------------------------------|-----------------------------------|
A|-----------------------------------|-----------------------------------|
E|-----------------------------------|-----------------------------------|



GUITAR 2

E|--12-10----------10--------10------------------|--12-10----------10--------10------------------|
B|--------12-10-12----12--12----12--12-10-10-----|--------12-10-12----12--12----12--12-10-10-12--| x2
G|-------------------------------------------12--|-----------------------------------------------|
D|-----------------------------------------------|-----------------------------------------------|
A|-----------------------------------------------|-----------------------------------------------|
E|-----------------------------------------------|-----------------------------------------------|



[1:14 - 1:32]

E|-------------------------------------------------------------------|
B|----3---3---3---3---3---3-3/5\3p0---3---3---3---3---3---3----------|   x 2
G|--0---0---0---0---0---0-----------4---4---4---4---4---4---2/4\2p0--|
D|-------------------------------------------------------------------|
A|-------------------------------------------------------------------|
E|-------------------------------------------------------------------|



[1:32 - 1:49]


GUITAR 1

E|--0--------------------------------|--0--------------------------------|
B|----3-------3-------3--------------|----3-------3-------3--------------|   x 2
G|------4-2-4---4---4---4---4-2-2-0--|------4-2-4---4---4---4---4-2-2-4--|
D|-----------------------------------|-----------------------------------|
A|-----------------------------------|-----------------------------------|
E|-----------------------------------|-----------------------------------|



GUITAR 2

E|--12-10----------10--------10------------------|--12-10----------10--------10------------------|
B|--------12-10-12----12--12----12--12-10-10-----|--------12-10-12----12--12----12--12-10-10-12--| x2
G|-------------------------------------------12--|-----------------------------------------------|
D|-----------------------------------------------|-----------------------------------------------|
A|-----------------------------------------------|-----------------------------------------------|
E|-----------------------------------------------|-----------------------------------------------|



GUITAR 3

E|-----------------------------------|
B|-----------------------------------|   x 4
G|-----------------------------------|
D|----------0-0-0-0-2-2-2-2-2-2-2-2--|
A|--3-3-3-3--------------------------|
E|-----------------------------------|



[1:49 - 2:59]


GUITAR 1

E|-------------------------------------|
B|-------------------------------------|  x 8
G|-------------------------------------|
D|--2~----------------2~--5-0~--0-2-0--|
A|------------0-2-0--------------------|
E|------0-3~--------3------------------|
 |
 |
E|------|
B|------|
G|------|
D|--2~--|
A|------|
E|------|



GUITAR 2 (Comes in at 2:07)

E|------|
B|--3~--|  x 4
G|--4~--|
D|--0~--|
A|------|
E|------|
 |
 |
E|--0--------------------------------|--0--------------------------------|
B|----3-------3-------3--------------|----3-------3-------3--------------|   x 4
G|------4-2-4---4---4---4---4-2-2-0--|------4-2-4---4---4---4---4-2-2-4--|
D|-----------------------------------|-----------------------------------|
A|-----------------------------------|-----------------------------------|
E|-----------------------------------|-----------------------------------|



GUITAR 3 (Comes in at 2:24)

E|--12-10----------10--------10------------------|--12-10----------10--------10------------------|
B|--------12-10-12----12--12----12--12-10-10-----|--------12-10-12----12--12----12--12-10-10-12--| x4
G|-------------------------------------------12--|-----------------------------------------------|
D|-----------------------------------------------|-----------------------------------------------|
A|-----------------------------------------------|-----------------------------------------------|
E|-----------------------------------------------|-----------------------------------------------|



GUITAR 4 (Comes in at 2:42)

E|---------------------------------------------------|
B|--12-12-12-12-12-12-12-12-10-10-10-10--------------|
G|--------------------------------------12-12-12-12--|
D|---------------------------------------------------|
A|---------------------------------------------------|
E|---------------------------------------------------|
 |
 |
E|--------------------------10-10-10-10--------------|
B|--12-12-12-12-12-12-12-12--------------------------|
G|--------------------------------------12-12-12-12--|
D|---------------------------------------------------|
A|---------------------------------------------------|
E|---------------------------------------------------|
 |
 |
E|---------------------------------------------------|
B|--12-12-12-12-12-12-12-12-10-10-10-10--------------|
G|--------------------------------------12-12-12-12--|
D|---------------------------------------------------|
A|---------------------------------------------------|
E|---------------------------------------------------|
 |
 |
E|--------------------------------------|
B|--------------------------------------|
G|--9-9-9-9-9-9-9-9-9-9-9-9-9-9-9-9-9~--|
D|--------------------------------------|
A|--------------------------------------|
E|--------------------------------------|



[2:59 - 3:21]


E|--0--------------------------------|--0-----------------------------------|
B|----3-------3-------3--------------|----3-------3-------3-----------------|
G|------4-2-4---4---4---4---4-2-2-0--|------4-2-4---4---4---4---4-2-2-0-----|
D|-----------------------------------|----------------------------------0~--|
A|-----------------------------------|--------------------------------------|
E|-----------------------------------|--------------------------------------|



[END]



******************************

|  /    slide up
|  \    slide down
|  p    pull of
|  ~    held note

******************************
Добавлено: 22.10.2015
Другие материалы по этой песне:
  • Аккорды и текст

Страница создана 22.10.2015
http://primanota.ru/turnover/diazepam-chords.htm
Привет, Гость.
Предлагаем пройти революционный курс по гитаре.
Подарок от PrimaNota.Ru, забирай!