PrimaNota.ru - самый крупный в мире бесплатный архив песенных текстов, аккордов, табулатур и нот


Turnover - Daydreaming - таба, видео

Регистрация Запомнить меня
Войти через:  Facebook Google Twitter Vk Yandex Mail.ru

Turnover - Daydreaming - таба, видео

Печатать
Просмотров: 73
Уроки эстрадного вокала в Санкт-Петербурге
T U R N O V E R - Daydreaming


Tuning: standard (EADGBe)


INTRO (00:00 - 00:21)

Guitar 1
e|---------------------------------|---------------------------------||
B|---------------------------------|---------------------------------||
G|---------------------------------|---------------------------------||
D|---1---1---1---1---1---1---1---1-|---5---5---5---5---5---5---5---5-|| x2
A|-3---3---3---3---3---3---3---3---|-6---6---6---6---6---6---6---6---||
E|---------------------------------|---------------------------------||

e|---------------------------------|---------------------------------|
B|---------------------------------|---------------------------------|
G|---------------------------------|---------------------------------|
D|---1---1---1---1---1---1---1---1-|---1---1---1---1-1-1-1-1-1-1-1-1-|
A|-3---3---3---3---3---3---3---3---|-1---1---1---1---1-1-1-1-1-1-1-1-|
E|---------------------------------|---------------------------------|



INTRO (all instruments)

Guitar 1
e|---------------------------------|---------------------------------|
B|---------------------------------|---------------------------------|
G|---------------------------------|---------------------------------|
D|-5-5-5---5-5---5-5-5-5---5-5---5-|-5-5-5---5-5---5-5-5-5---5-5-5-5-|
A|-6-6-6---6-6---6-6-6-6---6-6---6-|-6-6-6---6-6---6-6-6-6---6-6-6-6-|
E|-4-4-4---4-4---4-4-4-4---4-4---4-|-4-4-4---4-4---4-4-4-4---4-4-4-4-|
                                     P.M.

Guitar 2
e|---------------------------------|---------------------------------|
B|---------------------------------|---------------------------------|
G|-3-3-3---3-3---3-3-3-3---3-3---3-|-3-3-3---3-3---3-3-3-3---3-3-3-3-|
D|-5-5-5---5-5---5-5-5-5---5-5---5-|-5-5-5---5-5---5-5-5-5---5-5-5-5-|
A|---------------------------------|---------------------------------|
E|---------------------------------|---------------------------------|
                                     P.M.


VERSE 1

Guitar 1
e|---------------------------------|---------------------------------|
B|---------------------------------|---------------------------------|
G|---------------------------------|-3-----3-----3-----3---------3---|
D|-----1-----1---1-----1-------1---|---1-1---1-1---1-1---1-1-0-0---0-|
A|-3-3---3-3---3---3-3---3---3---3-|---------------------------------|
E|-------------------------4-------|---------------------------------|

e|---------------------------------|---------------------------------||
B|---------------------------------|---------------------------------||
G|---------------------------------|-3-----3-----3-----3---------3---||
D|-----1-----1---1-----1-------1---|---1-1---1-1---1-1---1-1-0-0---0-|| x 2
A|-3-3---3-3---3---3-3---3---3---3-|---------------------------------||
E|-------------------------4-------|---------------------------------||


Guitar 2
e|---------------------------------|---------------------------------|
B|-8-----------8-------------------|-6-----------6-------------------|
G|-----8-----------8-------8-------|-----8-----------8-------8-------|
D|---------8-----------8-------8---|---------8-----------8-------8---|
A|---------------------------------|---------------------------------|
E|---------------------------------|---------------------------------|

e|-6-----------6-------------------|---------------------------------||
B|-------------------------6-------|-8-----------8-------------------||
G|-----8-----------8-----------8---|-----8-----------8-------8-------||
D|---------8-----------8-----------|---------8-----------8-------8---|| x 2
A|---------------------------------|---------------------------------||
E|---------------------------------|---------------------------------||


PART (00:55 - 01:02)

Guitar 1
e|---------------------------------|---------------------------------|
B|---------------------------------|---------------------------------|
G|---------------------------------|---------------------------------|
D|-5---------------------------5---|-5-5---------------------5-5-5-5-|
A|-6---------------------------6---|-6-6---------------------6-6-6-6-|
E|-4---------------------------4---|-4-4---------------------4-4-4-4-|

Guitar 2
e|---------------------------------|---------------------------------|
B|---------------------------------|---------------------------------|
G|-3---------------------------3---|-3-----------------------3-------|
D|-5---------------------------5---|-5-----------------------5-------|
A|---------------------------------|---------------------------------|
E|---------------------------------|---------------------------------|


VERSE 2

Guitar 1
e|---------------------------------|---------------------------------|
B|---------------------------------|---------------------------------|
G|---------------------------------|-3-----3-----3-----3---------3---|
D|-----1-----1---1-----1-------1---|---1-1---1-1---1-1---1-1-0-0---0-|
A|-3-3---3-3---3---3-3---3---3---3-|---------------------------------|
E|-------------------------4-------|---------------------------------|

e|---------------------------------|---------------------------------|
B|---------------------------------|---------------------------------|
G|---------------------------------|-3-----3-----3-----3---------3---|
D|-----1-----1---1-----1-------1---|---1-1---1-1---1-1---1-1-0-0---0-|
A|-3-3---3-3---3---3-3---3---3---3-|---------------------------------|
E|-------------------------4-------|---------------------------------|


Guitar 2
e|---------------------------------|---------------------------------|
B|-8-----------8-------------------|-6-----------6-------------------|
G|-----8-----------8-------8-------|-----8-----------8-------8-------|
D|---------8-----------8-------8---|---------8-----------8-------8---|
A|---------------------------------|---------------------------------|
E|---------------------------------|---------------------------------|

e|-6-----------6-------------------|---------------------------------|
B|-------------------------6-------|-8-----------8-------------------|
G|-----8-----------8-----------8---|-----8-----------8-------8-------|
D|---------8-----------8-----------|---------8-----------8-------8---|
A|---------------------------------|---------------------------------|
E|---------------------------------|---------------------------------|


Guitar 1
e|---------------------------------|---------------------------------|
B|---------------------------------|---------------------------------|
G|---------------------------------|---------------------------------|
D|-----1-----1---1-----1-----1---1-|-----3-----3---3-----3---3-3-3-3-|
A|-3-3---3-3---3---3-3---3-3---3---|-1-1---1-1---1---1-1---1-1-1-1-1-|
E|---------------------------------|---------------------------------|


Guitar 2
e|---------------------------------|---------------------------------|
B|-8-----------8-------------------|-6-----------6-------------------|
G|-----8-----------8-------8-------|-----8-----------8-------8-------|
D|---------8-----------8-------8---|---------8-----------8-------8---|
A|---------------------------------|---------------------------------|
E|---------------------------------|---------------------------------|



PRECHORUS (01:22 - 01:29)

Guitar 1
e|-------------------------------------------------------------------|
B|-------------------------------------------------------------------|
G|-------------------------------------------------------------------|
D|-5-5-5---5-5---5-5-5-5---5-5---5-5-5-5---5-5---5---5-5-5---5-5-5-5-|
A|-6-6-6---6-6---6-6-6-6---6-6---6-6-6-6---6-6---6---6-6-6---6-6-6-6-|
E|-4-4-4---4-4---4-4-4-4---4-4---4-4-4-4---4-4---4---4-4-4---4-4-4-4-|
                                   P.M.

Guitar 2
e|-------------------------------------------------------------------|
B|-------------------------------------------------------------------|
G|-3-3-3---3-3---3-3-3-3---3-3---3-3-3-3---3-3---3---3-3-3---3-3-3-3-|
D|-5-5-5---5-5---5-5-5-5---5-5---5-5-5-5---5-5---5---5-5-5---5-5-5-5-|
A|-------------------------------------------------------------------|
E|-------------------------------------------------------------------|
                                   P.M.


CHORUS

Guitar 1
e|---------------------------------|---------------------------------||
B|---------------------------------|---------------------------------||
G|-5-5-5-7-7-7-8-8-8---------------|---------------------------------||
D|---------------------------------|-----5-------5-------5-------5---|| x 3
A|-3-3-3-5-5-5-6-6-6-3-3-3-3-3-3-3-|-6-6-6-6-6-6-6-6-6-6-6-6-6-6-6-6-||
E|-------------------1-1-1-1-1-1-1-|-4-4-4-4-4-4-4-4-4-4-4-4-4-4-4-4-||


Guitar 2
e|---------------------------------|---------------------------------||
B|-8-----------8-----------6---6---|-8-----------8-----------8-------||
G|-------8-----------8-------8---8-|-----8-----------8-----------8---||
D|---------------------------------|---------------------------------|| x 3
A|---------------------------------|---------------------------------||
E|---------------------------------|---------------------------------||


Guitar 1
e|---------------------------------|---------------------------------|
B|---------------------------------|---------------------------------|
G|-5-5-5-7-7-7-8-8-8---------------|---------------------------------|
D|---------------------------------|-5-------------------------------|
A|-3-3-3-5-5-5-6-6-6-3-3-3-3-3-3-3-|-6-------------------------------|
E|-------------------1-1-1-1-1-1-1-|-4-------------------------------|


Guitar 2
e|---------------------------------|---------------------------------|
B|-8-----------8-----------6---6---|---------------------------------|
G|-----8-----------8---------8---8-|-8-------------------------------|
D|---------------------------------|---------------------------------|
A|---------------------------------|---------------------------------|
E|---------------------------------|---------------------------------|



VERSE 3 (01:57 - 02:23)

Guitar 1
e|---------------------------------|---------------------------------|
B|---------------------------------|---------------------------------|
G|---------------------------------|-3-----3-----3-----3---------3---|
D|-----1-----1---1-----1-------1---|---1-1---1-1---1-1---1-1-0-0---0-|
A|-3-3---3-3---3---3-3---3---3---3-|---------------------------------|
E|-------------------------4-------|---------------------------------|

e|---------------------------------|---------------------------------|
B|---------------------------------|---------------------------------|
G|---------------------------------|-3-----3-----3-----3---------3---|
D|-----1-----1---1-----1-------1---|---1-1---1-1---1-1---1-1-0-0---0-|
A|-3-3---3-3---3---3-3---3---3---3-|---------------------------------|
E|-------------------------4-------|---------------------------------|


Guitar 2
e|---------------------------------|---------------------------------|
B|-8-----------8-------------------|-6-----------6-------------------|
G|-----8-----------8-------8-------|-----8-----------8-------8-------|
D|---------8-----------8-------8---|---------8-----------8-------8---|
A|---------------------------------|---------------------------------|
E|---------------------------------|---------------------------------|

e|-6-----------6-------------------|---------------------------------|
B|-------------------------6-------|-8---------8---------------------|
G|-----8-----------8-----------8---|-----8---------8-------8---------|
D|---------8-----------8-----------|---------8---------8-------8-----|
A|---------------------------------|---------------------------------|
E|---------------------------------|---------------------------------|


Guitar 1
e|---------------------------------|---------------------------------|
B|---------------------------------|---------------------------------|
G|---------------------------------|-3-----3-----3-----3---------3---|
D|-----1-----1---1-----1-------1---|---1-1---1-1---1-1---1-1-0-0---0-|
A|-3-3---3-3---3---3-3---3---3---3-|---------------------------------|
E|-------------------------4-------|---------------------------------|

e|---------------------------------|---------------------------------|
B|---------------------------------|---------------------------------|
G|---------------------------------|-3-----3-----3-------------------|
D|-----1-----1---1-----1-------1---|---1-1---1-1---1-1---------------|
A|-3-3---3-3---3---3-3---3---3---3-|---------------------------------|
E|-------------------------4-------|---------------------------------|
                                                     Pause on all instruments

Guitar 2
e|---------------------------------|---------------------------------|
B|-8-----------8-------------------|-6-----------6-------------------|
G|-----8-----------8-------8-------|-----8-----------8-------8-------|
D|---------8-----------8-------8---|---------8-----------8-------8---|
A|---------------------------------|---------------------------------|
E|---------------------------------|---------------------------------|

e|-6-----------6-------------------|---------------------------------|
B|-------------------------6-------|-8-----------8-------------------|
G|-----8-----------8-----------8---|-----8-----------8---------------|
D|---------8-----------------------|---------8-----------------------|
A|---------------------------------|---------------------------------|
E|---------------------------------|---------------------------------|
                                                     Pause on all instruments


BRIDGE

Guitar 1
e|---------------------------------|---------------------------------|
B|---------------------------------|---------------------------------|
G|---------------------------------|---------------------------------|
D|-5-5-5---5-5---5-5-5-5---5-5---5-|-5-5-5---5-5---5-5-5-5---5-5-5-5-|
A|-6-6-6---6-6---6-6-6-6---6-6---6-|-6-6-6---6-6---6-6-6-6---6-6-6-6-|
E|-4-4-4---4-4---4-4-4-4---4-4---4-|-4-4-4---4-4---4-4-4-4---4-4-4-4-|
                                     P.M.

Guitar 2
e|---------------------------------|---------------------------------|
B|---------------------------------|---------------------------------|
G|-3-3-3---3-3---3-3-3-3---3-3---3-|-3-3-3---3-3---3-3-3-3---3-3-3-3-|
D|-5-5-5---5-5---5-5-5-5---5-5---5-|-5-5-5---5-5---5-5-5-5---5-5-5-5-|
A|---------------------------------|---------------------------------|
E|---------------------------------|---------------------------------|
                                     P.M.

Guitar 1
e|---------------------------------|---------------------------------||
B|---------------------------------|---------------------------------||
G|---------------------------------|---------------------------------||
D|-1-------------------------------|---------------------------------|| x 2
A|-3---------------------------3---|-3-6---------------------6-6-6-3-||
E|-1---------------------------1---|-1-4---------------------4-4-4-1-||
                                      / slide up

Guitar 2
e|---------------------------------|---------------------------------||
B|---------------------------------|---------------------------------||
G|---------------------------------|---------------------------------||
D|-1---------------------------1---|-1-5---------------------5-5-5-1-|| x 2
A|-3---------------------------3---|-3-6---------------------6-6-6-3-||
E|---------------------------------|---------------------------------||
                                      / slide up

Guitar 1
e|---------------------------------|---------------------------------||
B|---------------------------------|---------------------------------||
G|---------------------------------|---------------------------------||
D|-1-------------------------------|---------------------------------|| x 2
A|-3---3-3-3-3-3-3-3-3-3-3-3-3-3---|-3-6-6-6-6-6-6-6-6-6-6-6-6-6-6-3-||
E|-1---1-1-1-1-1-1-1-1-1-1-1-1-1---|-1-4-4-4-4-4-4-4-4-4-4-4-4-4-4-1-||
       P.M.-------------------           P.M.---------------

Guitar 2
e|---------------------------------|---------------------------------||
B|-8-----8-----8-----8-----8-------|-6-----6-----6-----6-----6-------||
G|---8-----8-----8-----8-----8-----|---8-----8-----8-----8-----8-----||
D|-----8-----8-----8-----8-----8---|-----8-----8-----8-----8-----8---|| x 2
A|---------------------------------|---------------------------------||
E|---------------------------------|---------------------------------||



CHORUS (02:59 - 03:33)

Guitar 1
e|---------------------------------|---------------------------------||
B|---------------------------------|---------------------------------||
G|-5-5-5-7-7-7-8-8-8---------------|---------------------------------||
D|---------------------------------|-----5-------5-------5-------5---|| x 3
A|-3-3-3-5-5-5-6-6-6-3-3-3-3-3-3-3-|-6-6-6-6-6-6-6-6-6-6-6-6-6-6-6-6-||
E|-------------------1-1-1-1-1-1-1-|-4-4-4-4-4-4-4-4-4-4-4-4-4-4-4-4-||


Guitar 2
e|---------------------------------|---------------------------------||
B|-8-----------8-----------6---6---|-8-----------8-----------8-------||
G|-----8-----------8---------8---8-|-----8-----------8-----------8---||
D|---------------------------------|---------------------------------|| x 3
A|---------------------------------|---------------------------------||
E|---------------------------------|---------------------------------||


Guitar 1
e|---------------------------------|---------------------------------|
B|---------------------------------|---------------------------------|
G|-5-5-5-7-7-7-8-8-8---------------|---------------------------------|
D|---------------------------------|-5-------------------------------|
A|-3-3-3-5-5-5-6-6-6-3-3-3-3-3-3-3-|-6-------------------------------|
E|-------------------1-1-1-1-1-1-1-|-4-------------------------------|


Guitar 2
e|---------------------------------|---------------------------------|
B|-8-----------8-----------6---6---|---------------------------------|
G|-----8-----------8---------8---8-|-8-------------------------------|
D|---------------------------------|---------------------------------|
A|---------------------------------|---------------------------------|
E|---------------------------------|---------------------------------|


-
tabbed
by tigermetal
Добавлено: 12.03.2016
Другие материалы по этой песне:
  • Аккорды и текст

Страница создана 12.03.2016
http://primanota.ru/turnover/daydreaming-chords.htm
Привет, Гость.
Предлагаем пройти революционный курс по гитаре.
Подарок от PrimaNota.Ru, забирай!