PrimaNota.ru - самый крупный в мире бесплатный архив песенных текстов, аккордов, табулатур и нот


Turnip King - Metonymy - таба, видео

Регистрация Запомнить меня
Войти через:  Facebook Google Twitter Vk Yandex Mail.ru

Turnip King - Metonymy - таба, видео

Печатать
Просмотров: 61
Turnip King
Metonymy
Standard Tuning EADGBE

G   355433
A7  002020

intro


                      strum G             strum G               strum G
E -------3-----3-------------3--------------------3----------------------3-------------------|
B -----3-----3-3---------3--------3-----------3---------3------------3-----------8-----------|
G ----4-----4--4--------4--------4-----------4---------4------------4------------------------|
D ---5-----5---5-------5--------5-----------5------=--5------------5-------------------------|
A -------------5-----------------------------------------------------------------------------|
E --3-----3----3--------3-------3------------3---------3------------3---------3-3///7---7-7--|


          A7 picking                 G picking

E -------0---0---0---0---------------------------------------------------------------------------|
B ------2---2---2-----2--------------------------------------------------------------------------|
G -----0---0---0---0---0----------0--------0--------0-------0------------------------------------|
D ----2---2---2---2-----2------0--------0--------0--------0---0----------------------------------|
A ---0---0---0---0-----------2--2-----2---2----2---2----2-------2--------------------------------|
E -------------------------3--------3--------3--------3-----------3------------------------------|

A7 picking                                          G picking
I wanna die before you cos I cant live without you.

A7 picking                                                       G picking
And if you go if you go if you go then I'll know I'll know I'll know.

G & A picking continues throughout verses until the second section
______________________________________________________________________

Second Section

groove

E ------------------------------------------|
B --------------------------------11--11----|
G 9-99/11-11-11-11b-11--9-99-11-11--11--11--|
D ------------------------------------------|
A ------------------------------------------|
E ------------------------------------------|

E --------------------------------------------------------------------------------------------|
B ---------------------------------------------------------------11--13-----------------------|
G ----------9---9-9//////11-11-11-11b-11-------9---9-9//////11-11--11--11---------------------|
D --------------------------------------------------------------------------------------------|
A --------------------------------------------------------------------------------------------|
E --------------------------------------------------------------------------------------------|

E --------------------------------------------------------------------------------------------|
B ---------------------------------------------------------------11--11-----------------------|
G //////////9---9-9//////11-11-11-11b-11-------9---9-9//////11-11--11--11---------------------|
D --------------------------------------------------------------------------------------------|
A --------------------------------------------------------------------------------------------|
E --------------------------------------------------------------------------------------------|

E --------------------------------------------------------------------------------------------|
B --------------------------------------------------------------------------------------------|
G ----------9---9-9//////11-11-11-11b-11-----------9-----9-----9-----9------------------------|
D --------------------------------------------------------------------------------------------|
A --------------------------------------------------------------------------------------------|
E --------------------------------------------------------------------------------------------|

end of second section
- - - - - - - - - - - -


        A7 picking                 G picking

E -------0---0---0---0---------------------------------------------------------------------------|
B ------2---2---2-----2--------------------------------------------------------------------------|
G -----0---0---0---0---0----------0--------0--------0-------0------------------------------------|
D ----2---2---2---2-----2------0--------0--------0--------0---0----------------------------------|
A ---0---0---0---0-----------2--2-----2---2----2---2----2-------2--------------------------------|
E -------------------------3--------3--------3--------3-----------3------------------------------|

A7 picking                 G picking
I'll know. I'll know. I'll know.
etc..

strum the A7 and G chords as the song builds up instead of picking.


after heavy part

         A7 picking                 G picking

E -------0---0---0---0---------------------------------------------------------------------------|
B ------2---2---2-----2--------------------------------------------------------------------------|
G -----0---0---0---0---0----------0--------0--------0-------0------------------------------------|
D ----2---2---2---2-----2------0--------0--------0--------0---0----------------------------------|
A ---0---0---0---0-----------2--2-----2---2----2---2----2-------2--------------------------------|
E -------------------------3--------3--------3--------3-----------3------------------------------|

end with one strum on A7
Добавлено: 15.06.2016
Другие материалы по этой песне:
  • Аккорды и текст

Страница создана 15.06.2016
http://primanota.ru/turnip-king/metonymy-chords.htm
Привет, Гость.
Предлагаем пройти революционный курс по гитаре.
Подарок от PrimaNota.Ru, забирай!