PrimaNota.ru - самый крупный в мире бесплатный архив песенных текстов, аккордов, табулатур и нот


Turisas - Greek Fire - таба, видео

Регистрация Запомнить меня
Войти через:  Facebook Google Twitter Vk Yandex Mail.ru

Turisas - Greek Fire - таба, видео

Печатать
Просмотров: 97
Уроки эстрадного вокала в Санкт-Петербурге
I'm not sure about the tempo, but it's played pretty fast!

|----------------------------|
|----------------------------|
|----------------------------|
|----------------------------|
|--1----------8-5-5-6-3-3----|
|-----3-3--------------------|

(Play that three times)

|--------------|
|--------------|
|--------------|
|----------3-5-|
|--1-------3-5-|
|----3-3---1-3-|

(Then this once)
_______________________
That whole thing is played three times. then the last one is the same, but it ends like this:
|--------------------|
|--------------------|
|--------------------|
|--------3-5--3-5-3-2|
|--1-----3-5--3-5-3-2|
|----3-3-1-3--1-3-1-0|
Добавлено: 27.01.2014
Вам также может быть интересно:
Другие материалы по этой песне:

Страница создана 30.12.2013
http://primanota.ru/turisas/greek-fire-chords.htm
Привет, Гость.
Предлагаем пройти революционный курс по гитаре.
Подарок от PrimaNota.Ru, забирай!