PrimaNota.ru - самый крупный в мире бесплатный архив песенных текстов, аккордов, табулатур и нот


Turin Brakes - Save me - таба, видео

Регистрация Запомнить меня
Войти через:  Facebook Google Twitter Vk Yandex Mail.ru

Turin Brakes - Save me - таба, видео

Печатать
Просмотров: 64



Date: Tue, 31 Jan 2006 00:24:14 -0600
From: Bryan Miguez 
Subject: t/turin_brakes/save_me.tab

Artist: Turin Brakes
Song: Save Me (underdog)
Album: The Optimist LP

Okay This is my version of Save me, if It~Rs wrong E-mail me I~Rll see if I 
can answer your questions.

Verse:8x

         Bm                Am                G
e|------x--x-------5--5-------3~W3-|
b|------7--7-------5--5-------3~W3-|
g|------7--7-------6--6-------4~W4-|
d|------7--7-------7--7-------5~W5-|
a|------x--x-------7--7-------5~W5-|
e|--7-7-7--7---5-5-5--5---3-3-3~W3-|


e|-----0--------0---------5-------|
b|-3~W3--3-3--3-3-3-3---3-3-3-3----|
g|4--4---4--2-2---2---0-0---0-----|
d|--------------------------------|
a|--------------------------------|
e|--------------------------------|

(Play during second part of the verse over and over)


Chorus: 4x
            A                        F#m                     G               
                E
e|-------------------------------2-2-2-2-------0-0-0-0-------------|
b|-2-2-2-2--------2-2-2-2--------2-2-2-2-------0-0-0-0-------------|
g|-2-2-2-2--------2-2-2-2--------0-0-0-0-------1-1-1-1-------------|
d|-2-2-2-2--------2-2-2-2--------0-0-0-0-------2-2-2-2-------------|
a|-0-0-0-0--------0-0-0-0--------2-2-2-2-------2-2-2-2-------------|
e|----------------2-2-2-2--------3-3-3-3-------0-0-0-0-------------|



   For questions or comments: bryan_miguez@hotmail.com


Добавлено: 07.10.2013
Другие материалы по этой песне:
  • Аккорды и текст

Страница создана 07.10.2013
http://primanota.ru/turin-brakes/save-me-chords.htm
Привет, Гость.
Предлагаем пройти революционный курс по гитаре.
Подарок от PrimaNota.Ru, забирай!