PrimaNota.ru - самый крупный в мире бесплатный архив песенных текстов, аккордов, табулатур и нот


Turboweekend - On My Side - текст песни, бас-таба, видео

Регистрация Запомнить меня
Войти через:  Facebook Google Twitter Vk Yandex Mail.ru

Turboweekend - On My Side - текст песни, бас-таба, видео

Печатать
Просмотров: 56
Artist: Turboweekend.
Song: On My Side.
Album: Fault Lines.
Year: 2012.

Intro:
0:00 - 0:23.
G--------------------------------|
D--------------------------------|
A--------------------------------| x4.
E--6-6-6--6-6-6--5-5-5--10-10-10-|

G-----------------------------------------|
D-----------------------------------------|
A--10-10-10--10-10-10---------------------| x2.
E----------------------10-10-10--10-10-10-|

Verse 1:
0:23 - 0:44.
G--15-15-14-15-15-14--15-15-14-15-15-17--15-15-14-15-15-14--15-15-15-14--14-12-|
D------------------------------------------------------------------------------|
A------------------------------------------------------------------------------| x4.
E------------------------------------------------------------------------------|

G--19-19-19--19-19-19---14-14-14-15-15-14-|
D-----------------------------------------|
A-----------------------------------------| x2.
E-----------------------------------------|

Chorus:
0:44 - 1:11.
G--------------------------------|
D--------------------------------|
A--------------------------------| x4.
E--6-6-6--6-6-6--5-5-5--10-10-10-|

G-----------------------------------------|
D-----------------------------------------|
A--10-10-10--10-10-10---------------------| x2.
E----------------------10-10-10--10-10-10-|

Interlude:
1:11 - 1:33.
G--------------------------------|
D--------------------------------|
A--------------------------------| x4.
E--6-6-6--6-6-6--5-5-5--10-10-10-|

'Anything you're planning...'

G-----------------------------------------|
D-----------------------------------------|
A--10-10-10--10-10-10---------------------| x2.
E----------------------10-10-10--10-10-10-|

Verse 2:
1:33 - 1:55.
G--15-15-14-15-15-14--15-15-14-15-15-17--15-15-14-15-15-14--15-15-15-14--14-12-|
D------------------------------------------------------------------------------|
A------------------------------------------------------------------------------| x4.
E------------------------------------------------------------------------------|

G--19-19-19--19-19-19---14-14-14-15-15-14-|
D-----------------------------------------|
A-----------------------------------------| x2.
E-----------------------------------------|

Chorus:
1:55 - 2:28.
G--------------------------------|
D--------------------------------|
A--------------------------------| x4.
E--6-6-6--6-6-6--5-5-5--10-10-10-|

G-----------------------------------------|
D-----------------------------------------|
A--10-10-10--10-10-10---------------------| x2.
E----------------------10-10-10--10-10-10-|

Chorus:
2:28 - 2:51.
G--------------------------------|
D--------------------------------|
A--------------------------------| x4.
E--6-6-6--6-6-6--5-5-5--10-10-10-|

G-----------------------------------------|
D-----------------------------------------|
A--10-10-10--10-10-10---------------------| x2.
E----------------------10-10-10--10-10-10-|

Outro:
2:51 - 3:06.
G---------------|
D---------------|
A---------------|
E--6-6-6--6-6-6-|

End on Bb.

Enjoy this.

Comments, corrections and questions can be sent to:
Contact: Kenni-B@hotmail.com
Добавлено: 30.07.2015
Вам также может быть интересно:
Другие материалы по этой песне:
  • Аккорды и текст

Страница создана 23.11.2014
http://primanota.ru/turboweekend/on-my-side-chords.htm
Привет, Гость.
Предлагаем пройти революционный курс по гитаре.
Подарок от PrimaNota.Ru, забирай!