PrimaNota.ru - самый крупный в мире бесплатный архив песенных текстов, аккордов, табулатур и нот


Turbostaat - Haubentaucherwelpen - таба, видео

Регистрация Запомнить меня
Войти через:  Facebook Google Twitter Vk Yandex Mail.ru

Turbostaat - Haubentaucherwelpen - таба, видео

Печатать
Просмотров: 87
Авторы музыки: Peter Carstens, Jan Windmeier, Tobert Knopp, Marten Ebsen, Rotze Santos
Авторы текста: Marten Ebsen
Haubentaucherwelpen:

Gitarre1:
intro

Gitarre 1:


1 2 3 4 1 2 3 4 1 2 3 4 1 2 3 4
E-----------------------------------------------------------------|
H---------------------------------1313----------------------------|
G-7-7-7-7-7-7-7-7-7-7-7-7-9-9-1010------101010--9-9-9---5-5-5-5-5-|
D---------------------------------1010----------------------------|
A-5-5-5-5-5-5-5-5-5-5-5-5-7-7-8-8-------8-8-8---7-7-7---3-3-3-3-3-|
E-----------------------------------------------------------------|


Gitarre 2:

1 2 3 4 1 2 3 4 1 2 3 4 1 2 3 4
E-------------------------------------------------8-8-8-8-8-8-8-8-
H-1010101010101010101010101010101010101010101010101010101010101010
G-1010101010101010101010101010101010101010101010101010101010101010
D-----------------------------------------------------------------|
A(8)----das sind 10er-nicht-1-und-0-------------------------------|
E-----------------------------------------------------------------|


Strophe:
Git 1:
1 2 3 4 1 2 3 4 1 2 3 4 1 2 3 4
E-----------------------------------------------------------------|
H-6---5---------------------------5---6---8-----6---5-------------|
G-7---7-------------------------------------------------5---------|
D-----------------------------------------------------------------|
A-----------------------------------------------------------------|
E-----------------------------------------------------------------|

Git 2:
1 2 3 4 1 2 3 4 1 2 3 4 1 2 3 4
E---8---8---8---8---8---8---8---8---8---8---8---8---8---8---8---8-|
H-10--10--10--10--10--10--10--10--10--10--10--10--10--10--10--10--|
G-----------------------------------------------------------------|
D-----------------------------------------------------------------|
A-----------------------------------------------------------------|
E-----------------------------------------------------------------|

break: nur Gitarre 2 wie im Intro

Refrain:


Gitarre1:

1 2 3 4 1 2 3 4 1 2 3 4 1 2 3 4
E-8-8-8-8-8-8-8-8-8-8-8-8-8-8-8-8-8-8-8-8-8-8-8-8-8-8-8-8-8-8-8-8--|
H-101010101010101010101010101010108-8-8-8-8-8-8-8---10101010101010-|
G-1010101010101010101010101010101010101010101010101010101010101010 3x
D-----------------------------------------------------------------|
A(8-8-8-8-8-8-8-8-8-8-8-8-8-8-8-8)--------------------------------|
E-----------------------------------------------------------------|

1 2 3 4 1 2 3 4 1 2 3 4 1 2 3 4
E-8-8-8-8-8-8-8-8-1212121212121212---------------------------------|
H-10101010101010101010101010101010---------------------------------|
G------------------------------------------------------------------|
D------------------------------------------------------------------|
A---------------------------------12121212131313131212121213131313-|
E-da bin ich nicth sicher!-----------------------------------------|

Gitarre 2:
1 2 3 4 1 2 3 4 1 2 3 4 1 2 3 4
E-8-8-8-8-8-8-8-8-8-8-8-8-8-8-------------------------------------|
H-1010101010101010101010101010------------------------------------|
G-1010101010101010101010101010101010101010121212121414141414141414 3X
D------------------------------------------------------------------|
A---------------------------------8-8-8-8-101010101212121212121212-|
E------------------------------------------------------------------|

1 2 3 4 1 2 3 4 1 2 3 4 1 2 3 4
E-8-8-8-8-8-8-8-8-12121212121212128-8---8-8-8---8-8-8---8-8-8---8--|
H-101010101010101010101010101010101010--101010--101010--101010--10-|
G-101010101010101010101010101010101010--101010--101010--101010--10-|
D------------------------------------------------------------------|
A------------------------------------------------------------------|
E------------------------------------------------------------------|


bridge:

Git 1:

1 2 3 4 1 2 3 4 1 2 3 4 1 2 3 4
E------------------------------------------------------------------|
H------------------------------------------------------------------|
G-9-9-9-9-9-9-9-9-9-9-9-9-9-9-9-9-10101010101010101010101010101010-|
D------------------------------------------------------------------|
A-7-7-7-7-7-7-7-7-7-7-7-7-7-7-7-7-8-8-8-8-8-8-8-8-8-8-8-8-8-8-8-8--|
E------------------------------------------------------------------|

1 2 3 4 1 2 3 4 1 2 3 4 1 2 3 4
E------------------------------------------------------------------|
H-----------------1313131313131313---------------------------------|
G-9-9-9-9-9-9-9-9-----------------10101010101010101010101010101010-|
D-----------------1010101010101010---------------------------------|
A-7-7-7-7-7-7-7-7-----------------8-8-8-8-8-8-8-8-8-8-8-8-8-8-8-8--|
E------------------------------------------------------------------|


git 1. wärend solo:

1 2 3 4 1 2 3 4 1 2 3 4 1 2 3 4
E-8-8-8-8-8-8-8-8-8-8-8-8-8-8-8-8--(1212121212)---------8-8-8-8-8--|
H-10101010101010101010101010101010--1010101010101010-8--8-8-8-8-8--|
G-10101010101010101010101010101010--101010101010101010--1010101010-|
D------------------------------------------------------------------|
A------------------------------------------------------------------|
E------------------so ähnlich jedenfalls---------------------------|


Git 2:

solo:


1 2 3 4 1 2 3 4 1 2 3 4 1 2 3 4
E-12--------------12--------------12------------------12----------|
H-----13------13------13------13------13------13--15------13------|
G---------14--------------14--------------14------------------14--|
D-----------------------------------------------------------------|
A--------------dazwische jeweils ein takt ausklingen lassen-------|
E-----------------------------------------------------------------|

1 2 3 4 1 2 3 4 1 2 3 4 1 2 3 4
E-1212121212121212121212121515151512121212121212121212121215151515
H-----------------------------------------------------------------

1 2 3 4 1 2 3 4 1 2 3 4 1 2 3 4
E-1212121212121212121212121515151512121212121212121212121212------|
H-----------------------------------------------------------------|

brake

git2:

E-8-8---8---8---|
H-1010--10--10--|
G-1010--10--10--|
D---------------|
A---------------|
E---------------|

ganz am Ende 2mal den letzten teil vom Refrain

dann 2mal dass brake
Добавлено: 09.05.2012
Другие материалы по этой песне:
  • Аккорды и текст

Страница создана 09.05.2012
http://primanota.ru/turbostaat/haubentaucherwelpen-chords.htm
Привет, Гость.
Предлагаем пройти революционный курс по гитаре.
Подарок от PrimaNota.Ru, забирай!