PrimaNota.ru - самый крупный в мире бесплатный архив песенных текстов, аккордов, табулатур и нот


Turbonegro - Back To Dungaree High - текст песни, бас-таба, видео

Регистрация Запомнить меня
Войти через:  Facebook Google Twitter Vk Yandex Mail.ru

Turbonegro - Back To Dungaree High - текст песни, бас-таба, видео

Печатать
Просмотров: 136
Verse
G-----------------------|
D-----------------------|
A-------5----------8----|
E-5-5-5---5--8-8-8---8--|


Chorus                   
G---------------------------------------------------------|---------------------------------|
D---------------------------------------------------------|-------------5-5-5-------5-5-5---|
A-8-8-8-8-8-8-8-8-----------------8-8-8-8-8-8-8-8-7-------|-8-8-8-5-5-5-------7-7-7-------7-|
E-----------------5-5-5-5-5-5-5-5-------------------------|---------------------------------|


Bridge                                                                     ("Wooo!")
G------------------------------------------------------------------------|-------------|
D------------------------------------------------------------------------|-------5-5-5-|
A-0-0-0-0-0-0-0-0--0-0-0-0-0-0-0-0-0-0-0-0-0-0-0-0-3-0-5-0-3-0-5-0-3-0-5-|-8-8-8-------|
E------------------------------------------------------------------------|-------------|


Outro                                            x8
G--------------------------------------------------|-----------------------------------------------|
D--------------------------------------------5-5-5-|-------5-5-5-------5-5-5-------5-5-5-----------|
A-------5----------8-------------10----8-8-8-------|-8-8-8-------8-8-8-------8-8-8-----------------|
E-5-5-5---5--8-8-8---8--10-10-10----10-------------|-------------------------------------5-5-5-5-5-|


Just listen for order
Добавлено: 03.08.2015
Вам также может быть интересно:
Другие материалы по этой песне:
  • Аккорды и текст

Страница создана 05.05.2012
http://primanota.ru/turbonegro/back-to-dungaree-high-chords.htm
Привет, Гость.
Предлагаем пройти революционный курс по гитаре.
Подарок от PrimaNota.Ru, забирай!