PrimaNota.ru - самый крупный в мире бесплатный архив песенных текстов, аккордов, табулатур и нот


Turbo - Amalgamat - таба, видео

Регистрация Запомнить меня
Войти через:  Facebook Google Twitter Vk Yandex Mail.ru

Turbo - Amalgamat - таба, видео

Печатать
Просмотров: 112
-||---------------------------|
-||---------------------------|
-||-*-------------------------|
-||---------------------------|
-||-*-------------------------|
-||---0-0-0-2-2-2-3-3-3-5-5-5-|

-------------------------------------------------------------------------------|
-------------------------------------------------------------------------------|
-------------------------------------------------------------------------------|
-------------------------------------------------------2-2-2-------------------|
-2-2-2-3-3-3-2-2-2-------------------2-2-2-3-3-3-5-5-5-------5-5-5-3-3-3-2-2-2-|
-------------------5-5-5-3-3-3-5-5-5-------------------------------------------|


                                                                                         
    x2
---------------------------------------------------------------------------------------------|-|
---------------------------------------------------------------------------------------------|-|
-------------------------------------------------------------------------------------------*-|-|
-------------2-2-2-4-4-4-5-5-5-4-4-4-2-2-2-------------2-2-2-4-4-4-------2-2-2-4-4-4-5-5-5---|-|
-3-3-3-5-5-5-------------------------------3-3-3-5-5-5-------------5-5-5-------------------*-|-|
---------------------------------------------------------------------------------------------|-|

(podczas dwudźwięków strunę G [trzecią] podciągamy o 1 ton w górę)

                                                                     full       x3|
-||---------------------------------------------------------------------|-------|||
-||---12-12-12-12---15-15-15-10-----------------------------------------|-------|||
-||-*-14-14-14-14---17-17-17-12---12--12-12-12-12-12-11-9----9h11-------|-----*-|||
-||-------------------------------------------------------12------5--7--7--7~---|||
-||-*-------------------------------------------------------------------------*-|||
-||-----------------------------------------------------------------------------|||


---------------------------|
-12-12-12-12---15-15-15-10-|
-14-14-14-14---17-17-17-12-|
---------------------------|
---------------------------|
---------------------------|



                                       full
----------------------------------------|-----------|
----------------------------------------|-----------|
--12--12-12-12-12-12-11-9----9h11-------|-----------|
--------------------------12------5--7--7--7--5--4--|
----------------------------------------------------|
----------------------------------------------------|

-------------------------------------------------------------------------------------|
-------------------------------------------------------------------------------------|
-------------------------------------------------------------------------------------|
-------------------------------------------------------------------------------2-2-2-|
-------------------------2-2-2-3-3-3-2-2-2-------------------2-2-2-3-3-3-5-5-5-------|
-0-0-0-2-2-2-3-3-3-5-5-5-------------------5-5-5-3-3-3-5-5-5-------------------------|

------------------------|
------------------------|
------------------------|
------------------------|
5-5-5-3-3-3-2-2-2-3-3-3-|
------------------------|


-------------------------------------------------------------------------------------|
-------------------------------------------------------------------------------------|
-------------------------------------------------------------------------------------|
-------2-2-2-4-4-4-5-5-5-4-4-4-2-2-2-------------2-2-2-4-4-4-------2-2-2-4-4-4-5-5-5-|
-5-5-5-------------------------------3-3-3-5-5-5-------------5-5-5-------------------|
-------------------------------------------------------------------------------------|

-------------------------------------------------------------------------------|
-------------------------------------------------------------------------------|
-------------------------------------------------------------------------------|
-------------------------------------------------------------------------------|
-------------------------2-2-2-3-3-3-2-2-2-------------------2-2-2-3-3-3-5-5-5-|
-0-0-0-2-2-2-3-3-3-5-5-5-------------------5-5-5-3-3-3-5-5-5-------------------|

------------------------------|
------------------------------|
------------------------------|
2-2-2-------------------------|
------5-5-5-3-3-3-2-2-2-3-3-3-|
------------------------------|

--------------------------------------------------------------------------------------|
--------------------------------------------------------------------------------------|
--------------------------------------------------------------------------------------|
-------2-2-2-4-4-4-5-5-5-4-4-4-2-2-2-------------2-2-2-4-4-4-------2-2-2-4h5--4-------|
-5-5-5-------------------------------3-3-3-5-5-5-------------5-5-5---------------5----|
------------------------------------------------------------------------------------0-|

-----------------------------------------------------------------------------|
-----------------------------------------------------------------------------|
-----------------------------------------------------------------------------|
----------/5--4-----(5)/7~--(4h)5--4-----------------------------/5--4-------|
-----------------5--------------------5---------------------------------5----|
--0-0-0-0--------------------------------3--3-3-3-3-3--5--7--5~------------0-|

-----------------------------------------------------------------------------|
-----------------------------------------------------------------------------|
-----------------------------------------------------------------------------|
----------/5--4-----(5)/7~--(4h)5--4-----------------------------/5--4-------|
-----------------5--------------------5----------------------3~---------5----|
--0-0-0-0--------------------------------3--3-3-3-3-3--5--7----------------0-|

-----------------------------------------------------------------------------|
-----------------------------------------------------------------------------|
-----------------------------------------------------------------------------|
----------/5--4-----(5)/7~--(4h)5--4-----------------------------/5--4-------|
-----------------5--------------------5---------------------------------5----|
--0-0-0-0--------------------------------3--3-3-3-3-3--5--7--5~------------0-|

-----------------------------------------------------------------------------|
-----------------------------------------------------------------------------|
-----------------------------------------------------------------------------|
----------/5--4-----(5)/7~--(4h)5--4-----------------------------------------|
-----------------5--------------------5----------------------3--3-3-3-3------|
--0-0-0-0--------------------------------3--3-3-3-3-3--5--7-------------5--7-|

-----------------------------------|
-----------------------------------|
-----------------------------------|
-----------------------------------|
-3--5--5-5-5-5----3--5--7--7-7-7-7-|
---------------7-------------------|


----------------------------------------------------------|
----------------------------------------------------------|
----------------------------------------------------------|
----------4--4-4-4-4-------4--5--5-5-5-5-5---5-5-5-5-5\---|
-3--5--7-------------5--7---------------------------------|
----------------------------------------------------------|

(solo)

--------------------------------------------------|
-17-\-12-/-15---10/-11-\-10-/-11---(12)-/-15-\-8--|
-16-\-13-/-14---9-/-12-\-9--/-12---(11)-/-14-\-7--|
--------------------------------------------------|
--------------------------------------------------|
--------------------------------------------------|

             full full
                |  |
----------------|--|-8p7-----------------------------------------------|
-10p8---8h10p8-10-10-----8-------------7h8p7---7h8p7---7h8p7-----------|
------9--------------------7\5---------------9-------9-------14p9-14p9-|
-------------------------------9p5h5/9---------------------------------|
-----------------------------------------------------------------------|
-----------------------------------------------------------------------|

full full
  |  |
--|--|---------------------------------------------------------------------------|
-10-10-17-\-15-/-17-\-12---12h15p12----12----------------------------------------|
-------16-\-14-/-16-\-11------------14----14-------------------------------------|
---------------------------------------------14-12-14---12h14p12\11--------------|
--------------------------------------------------------------------(12)/-14-12--|
---------------------------------------------------------------------------------|

                 full full (2 tony w górę)
                    |   |    |
                    |   |    |         full           x4
--------------------|---|----|-----||----|------------||
--------------------|---|----|-----||----|-12h15p12---||
--------------------|---|----|-----||-*-14----------*-||
----------14----14-16--16---16-16--||-----------------||
-12h14-16----14--------------------||-*-------------*-||
-----------------------------------||-----------------||

----------------12h15p12------------------------------------------------------------------------------|
----12h15p12-------------15h17p15p12------------------------------------------------------------------|
-14----------14----------------------14h16p14p12------------------------------------------------------|
-------------------------------------------------14h17p14p12-14p13p12----13p12-------12---------------|
----------------------------------------------------------------------14-------14p13----14p13p12-\-10-|
------------------------------------------------------------------------------------------------------|

                                                   full full       full
                                                     |   |           |
------------------10----17p12-15~-----------15-17-15-17-17----15h17--|--|
---------------12----12-------------(15)/17------------(17)---------15--|
------------12----------------------------------------------------------|
---------12-------------------------------------------------------------|
---10h14----------------------------------------------------------------|
------------------------------------------------------------------------|

                                (pół tonu w górę)
                                        |
----------------------------------------|--------|
-17-15-12-17-15-12-15-------------------|--------|
----------------------14h15p14p12----x-14-14p-12-|
----------------------------------12-------------|
-------------------------------------------------|
-------------------------------------------------|

                                                                          full           
       full
                                                                           |             
         |
---------------------------------------------------------------------------|----------------------|---|
---------------------------------------------------------------------------|---------------------15~--|
-14p12----12----------------------------------------------12h14p12----12--14--14--12h14-12------------|
-------14----14p12----------------------------------12h14----------14----------------------14-14------|
-------------------14p12-\-10-----12p10----10h12/14---------------------------------------------------|
----------------------------------------12------------------------------------------------------------|


                   full                                     full
---------------------|----------------------------------------|------------|
---------------------|----------------------------------------|------------|
--------11--12--14--14------14-----------12------14--------12--14--14~~----|
-12/14--------------------------14~----------------------------------------|
---------------------------------------------------------------------------|
---------------------------------------------------------------------------|


                   full                                      full
---------------------|-----------------------------------------|-------------|
---------------------|-----------------------------------------|-------------|
--------11--12--14--14------14-----------12------14----14--12--14--14~~~~----|
-12/14--------------------------14~------------------------------------------|
-----------------------------------------------------------------------------|
-----------------------------------------------------------------------------|

(znowu podciągamy trzecią strunę o ton w dwudźwiękach)

                  full
--------------------|-----------------------------------------------------------------|
--5--5----7--8------|--8h11p8-----8h11p8-----8h11p8-----------------------------------|
--7--7----7--10----10---------10---------10---------10p7-10p7-10p7h9p7----7-----------|
-----------------------------------------------------------------------10---10p8------|
---------------------------------------------------------------------------------10~--|
--------------------------------------------------------------------------------------|

--------------------------|
--5--5----7--8----13--15--|
--7--7----7--10---15--17--|
--------------------------|
--------------------------|
--------------------------|

-||---------------------------------------------------------------------------------|
-||---------------------------------------------------------------------------------|
-||-*-------------------------------------------------------------------------------|
-||---------------------------------------------------------------------------------|
-||-*-------------------------2-2-2-3-3-3-2-2-2-------------------2-2-2-3-3-3-5-5-5-|
-||---0-0-0-2-2-2-3-3-3-5-5-5-------------------5-5-5-3-3-3-5-5-5-------------------|

------------------------|
------------------------|
------------------------|
2-2-2-------------------|
------5-5-5-3-3-3-2-2-2-|
------------------------|


                                                                                         
    x2
---------------------------------------------------------------------------------------------|-|
---------------------------------------------------------------------------------------------|-|
-------------------------------------------------------------------------------------------*-|-|
-------------2-2-2-4-4-4-5-5-5-4-4-4-2-2-2-------------2-2-2-4-4-4-------2-2-2-4-4-4-5-5-5---|-|
-3-3-3-5-5-5-------------------------------3-3-3-5-5-5-------------5-5-5-------------------*-|-|
---------------------------------------------------------------------------------------------|-|

(i znowu trzecia podciągana o ton)

                                                                     full       x3|
-||---------------------------------------------------------------------|-------|||
-||---12-12-12-12---15-15-15-10-----------------------------------------|-------|||
-||-*-14-14-14-14---17-17-17-12---12--12-12-12-12-12-11-9----9h11-------|-----*-|||
-||-------------------------------------------------------12------5--7--7--7~---|||
-||-*-------------------------------------------------------------------------*-|||
-||-----------------------------------------------------------------------------|||


---------------------------|
-12-12-12-12---15-15-15-10-|
-14-14-14-14---17-17-17-12-|
---------------------------|
---------------------------|
---------------------------|



                                       full
----------------------------------------|-------------|
----------------------------------------|-------------|
--12--12-12-12-12-12-11-9----9h11-------|-------------|
--------------------------12------5--7--7--7--5--4----|
------------------------------------------------------|
----------------------------------------------------0-|

-----------------------------------------------------------------------------|
-----------------------------------------------------------------------------|
-----------------------------------------------------------------------------|
----------/5--4-----(5)/7~--(4h)5--4-----------------------------/5--4-------|
-----------------5--------------------5---------------------------------5----|
--0-0-0-0--------------------------------3--3-3-3-3-3--5--7--5~------------0-|

-----------------------------------------------------------------------------|
-----------------------------------------------------------------------------|
-----------------------------------------------------------------------------|
----------/5--4-----(5)/7~--(4h)5--4-----------------------------/5--4-------|
-----------------5--------------------5----------------------3~---------5----|
--0-0-0-0--------------------------------3--3-3-3-3-3--5--7----------------0-|

-----------------------------------------------------------------------------|
-----------------------------------------------------------------------------|
-----------------------------------------------------------------------------|
----------/5--4-----(5)/7~--(4h)5--4-----------------------------/5--4-------|
-----------------5--------------------5---------------------------------5----|
--0-0-0-0--------------------------------3--3-3-3-3-3--5--7--5~------------0-|

-----------------------------------------------------------------------------|
-----------------------------------------------------------------------------|
-----------------------------------------------------------------------------|
----------/5--4-----(5)/7~--(4h)5--4-----------------------------------------|
-----------------5--------------------5----------------------3--3-3-3-3------|
--0-0-0-0--------------------------------3--3-3-3-3-3--5--7-------------5--7-|

-----------------------------------|
-----------------------------------|
-----------------------------------|
-----------------------------------|
-3--5--5-5-5-5----3--5--7--7-7-7-7-|
---------------7-------------------|


----------------------------------------------------------|
----------------------------------------------------------|
----------------------------------------------------------|
----------4--4-4-4-4-------4--5--5-5-5-5-5---5-5-5-5-5\---|
-3--5--7-------------5--7---------------------------------|
----------------------------------------------------------|
Добавлено: 14.07.2015
Другие материалы по этой песне:
  • Аккорды и текст

Страница создана 14.07.2015
http://primanota.ru/turbo/amalgamat-chords.htm
Привет, Гость.
Предлагаем пройти революционный курс по гитаре.
Подарок от PrimaNota.Ru, забирай!