PrimaNota.ru - самый крупный в мире бесплатный архив песенных текстов, аккордов, табулатур и нот


Tunng - October - таба, видео

Регистрация Запомнить меня
Войти через:  Facebook Google Twitter Vk Yandex Mail.ru

Tunng - October - таба, видео

Печатать
Просмотров: 169
Felt like tabbing something tokday... it's a song by Tunng again, big surprise...
My second favorite song of the "And then we saw land"-Album, October.

Intro (00:00)

e|----------------------------|
B|----------------------------|    repeat this 5x
G|-----0-----0-----0-----0----|    "A trick of the light..."
D|---2-----2-----2-----2------|    then:
A|-0-----0-----0-----0--------|
E|----------------------------|

e|----------------|
B|----------------|  
G|----------------|  
D|----------------|  "a turn of the tide."
A|---------2--0---|
E|--3--0----------|


Verse (00:14)

[Let the bass note ring, palm-mute the chords]

   Am7                                 C                  Dadd14  Am7
e|-----------------------------------------------------------------------|
B|----1--1-----1--1-----1--1-----1--1-----1--1-----1--1----3--3----1--1--|
G|----0--0-----0--0-----0--0-----0--0-----0--0-----0--0----0--0----0--0--|
D|----2--2-----2--2-----2--2-----2--2-----2--2-----2--2----4--4----2--2--|
A|-0--------0--------0--------0--------3--------3--------5-------0-------|
E|-----------------------------------------------------------------------|
                                    "A rift in a valley, full moon in July.."
 
    Am7              C        Dadd14   C       Am7       C         Dadd14
e|------------------------------------------------------------------------|
B|----1--1-----1--1-----1--1-----3--3-----1--1-----1--1----1--1-----3-----|
G|----0--0-----0--0-----0--0-----0--0-----0--0-----0--0----0--0-----0-----|
D|----2--2-----2--2-----2--2-----4--4-----2--2-----2--2----2--2-----4-----|
A|-0--------0--------3--------5--------3--------0--------3----------5-----|
E|------------------------------------------------------------------------|
   "Red summer sun morning, a cold April sky, a lonely October, so cruel..-"
                                                               "...to deny."

Chorus (00:32) 

e|--------------------------------------------------------------------------|
B|----1--1-----1--1-----3--3-------------1--1-----1--1-------3--------3-----|
G|----0--0-----0--0-----0--0-------------0--0-----0--0-----0---0----0---0---|
D|----2--2-----2--2-----4--4-------------2--2-----2--2----------------------|
A|-0--------3--------5-------------2--0---------3--------5--------5---------|
E|----------------------------3--0------------------------------------------|

Verse (00:40)

e|----------------------------|
B|----------------------------|    
G|-----0-----0-----0-----0----|    "A Wish for a fountain..."
D|---2-----2-----2-----2------|    
A|-0-----0-----0-----0--------|
E|----------------------------|

e|----------------|
B|----------------|  
G|----------------|  
D|----------------|  "lost in the wind."
A|---------2--0---|
E|--3--0----------|

"A kick from a new life,           \
about to begin                      \
A south facing island                \  same progression as
that floods in the spring            /   first verse
Will call to October new life..-    /
..it will bring."                  /


Chorus (01:02)

-> same as first chorus, repeat twice
"...it will bring, it will bring, it will bring, it will bring."

Verse (01:19)

"A drop in the ocean..."

e|----------------|
B|----------------|  
G|----------------|  
D|----------------|  "short of the line."
A|---------2--0---|
E|--3--0----------|

"Cursing a feeling, caught up by the night     \
Repairing the ruin, reducing the sting          \
That falling October will bring,                 \
Hope that is dreaming, love that is torn,         \  same progression as
Dancing like dust in the eye of the storm,        /  verse 1 & 2
Truth will be lost, when the mocking bird dies   /
October returns with its cold."                 /

Bridge (02:04)

   Aadd9                                            Gsus2
e|---------------------------------------------------------------------------|
B|---------------------------------------------------------------------------|
G|-----4-----4-----4-----4-----4-----4-----4-----4-----7-----7-----7-----7---|
D|---2-----2-----2-----2-----2-----2-----2-----2-----5-----5-----5-----5-----|
A|-0-----0-----0-----0-----0-----0-----0-----0-----0-----0-----0-----0-------|
E|---------------------------------------------------------------------------|
                        
                         E5  
-----------------------------------------------------------------------------|
-----------------------------------------------------------------------------|
-----7-----7-----7-----7-----9-----9-----9-----9-----9-----9----9-----9------|
---5-----5-----5-----5-----7-----7-----7-----7-----7-----7-----7-----7-------|
-0-----0-----0-----0-----0-----0-----0-----0-----0-----0-----0-----0---------|
-----------------------------------------------------------------------------|


-------------------------------------------------|
-------------------------------------------------|
-----9-----9-----9-----9-----9-----9-----9-----9-| repeat this 4 times
---7-----7-----7-----7-----7-----7-----7-----7---|
-0-----0-----0-----0-----0-----0-----0-----0-----|
-------------------------------------------------|

Verse (03:12)

e|----------------------------|
B|----------------------------|    
G|-----0-----0-----0-----0----|    "Awe can't be touched"
D|---2-----2-----2-----2------|    
A|-0-----0-----0-----0--------|
E|----------------------------|

e|----------------|
B|----------------|  
G|----------------|  
D|----------------|  "faith can be blind."
A|---------2--0---|
E|--3--0----------|


"Fooled by a past,                         \
that the world left behind,                 \
Hidden in rocks,                             \  same as all verses before
that are lost to the shore,                  /
Of silent October we choose to ignore."     /


I hope this of any use to you.
As always: rate, comment & correct.
Добавлено: 16.10.2013
Другие материалы по этой песне:
  • Аккорды и текст

Страница создана 16.10.2013
http://primanota.ru/tunng/october-chords.htm
Привет, Гость.
Предлагаем пройти революционный курс по гитаре.
Подарок от PrimaNota.Ru, забирай!