PrimaNota.ru - самый крупный в мире бесплатный архив песенных текстов, аккордов, табулатур и нот


Tunng - Arms - текст песни, таба, видео

Регистрация Запомнить меня
Войти через:  Facebook Google Twitter Vk Yandex Mail.ru

Tunng - Arms - текст песни, таба, видео

Печатать
Просмотров: 123
-------------------------------------------------------------------------------
                             ARMS - Tunng
-------------------------------------------------------------------------------
Tabbed by: scottanthony [10-Dec-07]


Tuning: Standard
Capo: 1st fret


e |----2--|----2--|----2--|----2--|
B |-----3-|-----3-|-----3-|-----3-|
G |--2----|--2----|--2----|--2----|
D |-0-0---|-0-0---|-0-0---|-0-0---|
A |-------|-------|-------|-------|
E |-------|-------|-------|-------|

e |----2--|----2--|----2--|----2--|
B |-----3-|-----3-|-----3-|-----3-|
G |--1----|--1----|--1----|--1----|
D |-2-2---|-2-2---|-2-2---|-2-2---|
A |-------|-------|-------|-------|
E |-------|-------|-------|-------|

e |----0--|----0--|----2--|----0--|
B |-------|-------|-------|-------|
G |--0--3-|--0--3-|--0--3-|--0--3-|
D |-0-0---|-0-0---|-0-0---|-0-0---|
A |-------|-------|-------|-------|
E |-------|-------|-------|-------|

e |----2--|----2--|----2--|----2--|
B |-----3-|-----3-|-----3-|-----3-|
G |--2----|--2----|--2----|--2----|
D |-0-0---|-0-0---|-0-0---|-0-0---|
A |-------|-------|-------|-------|
E |-------|-------|-------|-------|


That's my first (submitted) tab and that's the whole song, basically. -S.

===============================================================================
Добавлено: 08.03.2012
Другие материалы по этой песне:
  • Аккорды и текст

Страница создана 08.03.2012
http://primanota.ru/tunng/arms-chords.htm
Привет, Гость.
Предлагаем пройти революционный курс по гитаре.
Подарок от PrimaNota.Ru, забирай!