PrimaNota.ru - самый крупный в мире бесплатный архив песенных текстов, аккордов, табулатур и нот


Tumbao - Fly Like A Bird - бас-таба, видео

Регистрация Запомнить меня
Войти через:  Facebook Google Twitter Vk Yandex Mail.ru

Tumbao - Fly Like A Bird - бас-таба, видео

Печатать
Просмотров: 120
Song: Fly Like a Bird 
Artist: Tumbao (www.tumbao.art.pl)
Tabbed by: karq@interia.pl

BASS:

There are five riffs.

1:
g|----------------------------------------------------------------|
d|---------------5---------------5---------------5---------------5|
a|7-7-7-------55--7-7-7-------55--7-7-7-------55--7-7-7-------55--|
e|----------7---------------7---------------7-------------7-7-----|

2:
g|----------------------------------------------------------------|
d|---------------3---------------3---------------3---------------3|
a|5-5-5-------33--5-5-5-------33--5-5-5-------33--5-5-5-------33--|
e|----------5---------------5---------------5-------------5-5-----|

3:
g|----------------------------------------------------------------|
d|----------------------------------------------------------------|
a|------------3---------------3----------------3--------------3---|
e|3-3-3-----55---53-3-3-----5---553-3-3-----5----53--5---6--------|

4:
g|----------------------------------------------------------------|
d|----------------------------------------------------------------|
a|5-5-3---3-----------------------5-5-3---3----------------------3|
e|------5---5---------------------------5---5-------------------5-|

5:
g|----------------------------------------------------------------|
d|----------------------------------------------------------------|
a|5-----5-3-----3-5-----5---------5-----5-3-----3-5-----5---------|
e|---5-------5-------5---------------5-------5-------5------------|


And they comes in this direction: 
111122 2222 1222 2322 2212 2223 4422 2212 3555


     
Добавлено: 13.11.2013
Другие материалы по этой песне:
  • Аккорды и текст

Страница создана 05.11.2013
http://primanota.ru/tumbao/fly-like-a-bird-chords.htm
Привет, Гость.
Предлагаем пройти революционный курс по гитаре.
Подарок от PrimaNota.Ru, забирай!