PrimaNota.ru - самый крупный в мире бесплатный архив песенных текстов, аккордов, табулатур и нот


Tulus - Suatu Hari Di Bulan Juni - аккорды и текст, видео

Регистрация Запомнить меня
Войти через:  Facebook Google Twitter Vk Yandex Mail.ru

Tulus - Suatu Hari Di Bulan Juni - аккорды и текст, видео

Печатать
Просмотров: 108
Suatu Hari Di Bulan Juni
Tulus
-------------------------------------------------------------------------------
                        SUATU HARI DI BULAN JUNI - Tulus
-------------------------------------------------------------------------------
Tabbed by:ndermawan
E-mail:ndermawan@yahoo.com

Tuning: Standard 

Reference: https://www.youtube.com/watch?v=6cELm5gTYiU

- Based on album version. I've heard a few other versions on youtube that are a lower tempo/pitch

- Very nice catchy song! But the singing melody and timing is a bit harder to get

- If you have someone on piano/guitar playing the base chords whilst another plucks
  the high notes it would probably sound better

- Just as a note; I find trying to write the chords above the right syllable very very hard to do
  for this song because of the strange vocals-to-chord-strum timing. So apologies in advance if unclear.


Chords used:

    B*  B  G#m  E   E*  F#  F#*  B7 B7* Em*      
                 
e|--7---2---4---0---7---2---9----2---7---7------------------------------------------------|
B|--7---4---4---0---9---2---11---4---7---8------------------------------------------------|
G|--8---4---4---1---9---3---11---2---8---9------------------------------------------------|
D|--9---4---6---2---9---4---11---4---7---9------------------------------------------------|
A|--9---2---6---2---7---4---9----2---9---7------------------------------------------------|
E|--7-------4---0-------2------------7----------------------------------------------------|


Intro layer 1 : B  G#m E  F#           - Base chords if you just want to sing along  
Intro layer 2 : B* B*  E* F#*  X2      - What's played by the guitar - quick sharp strum


Bass line (on piano)
e|---------------------------------------------------------------------------|
B|---------------------------------------------------------------------------|
G|---------------------------------------------------------------------------|
D|---------------------------------------------------------------------------|
A|-----------------------------------1-2-------------------------------------|
E|--7----7-6-4----4-2-0--0--2----2-4-----------------------------------------|

Verse is about the same as the intro, with addition of a guitar strumming high staccato notes


Verse:                                                                          (0.14 - 0.40)
-------
       B      G#m   E        F#  B             G#m  E  F#
Kita tak perlu      terlalu      banyak uang
       B     G#m    E        F#  B             G#m  E  F#
Kita bahagia                meski tak kemana-mana




Chorus:                                                                         (0.41 - 1.11)
-------
       B      G#m   E        F#         B      G#m  E  F#
Kamu cantik (cantik)       meski tanpa bedak (tanpa bedak)

                                  (Walking bass start at B - memilikimu)
       B        G#m     E  F#     B    E* Em*   B*   B7*  
Rasakan ini senang di dadaku memilikimu (memilikimu)


Walking bass on guitar: (starts around 1.05)
e|---------------------------------------------------------------------------|
B|---------------------------------------------------------------------------|
G|---------------------------------------------------------------------------|
D|--------1-2-2-2-2-1--------------------------------------------------------|
A|--2-2-4-------------4-2-2-2(2-2-2-2-2-2)4-2--------------------------------| 2's in brackets optional
E|--------------------------------------------4-0----------------------------|



Bridge:                                                                         (1.12 - 1.38)
-------
E*  E*          B  B         E*         E*         B         B
  Peluk      aku,            merdu ku dengar debar jantungmu

                                           Keep F shape, walk down on bass (use F#*)
 C#m7   C#m7  C#m7  C#m7           F#      F#/E    F#/Dm     F#/C   
  Oh tenang sayang              semua kan baik-baik saja                                    




Chorus: Chords + arpeggiated picking                                            (1.39 - 2.09)
-------
       B      G#m   E        F#         B      G#m  E  F#
Kamu cantik (cantik)       meski tanpa bedak (tanpa bedak)

                                 (Walking bass start at B - memilikimu)
       B        G#m     E  F#     B    E* Em*   B*   B7*  
Rasakan ini senang di dadaku memilikimu (memilikimu)




Bridge: Chords + arpeggiated picking                                            (2.10 - 2.34)
-------
E*  E*          B  B         E*       E*      B      B
  Peluk      aku,         merdu ku dengar debar jantungmu

                                           Keep F shape, walk down on bass (use F#*)
 C#m7   C#m7  C#m7  C#m7           F#      F#/E    F#/Dm     F#/C
  Oh tenang sayang              semua kan baik-baik saja                                    




Verse 2: Chords + arpeggiated picking                                           (2.35 - 3.07/end)
--------                                                                                 
                                                                                            (bass only)
     B       G#m       E          F#          B        G#m      E   F#                  B    G   F#  E
Oh kita  (kitaaaa)       kita 'kan baik-baik saja  (baaaik sajaaa)  Kita kan baik-baik saja, ooooooh

                                    B   E  B
Kita kan baik-baik saaaaaajaaaaaaa 



- One of the hardest songs I've tabbed in a while, imo, so bear with me! Hope it helped


************************************

| /   slide up
| \   slide down
| h   hammer-on
| p   pull-off
| ~   vibrato
| +   harmonic
| x   Mute note
| b   Bend
| pb  Pre-bend
| br  Bend release
| pbr Pre-bend release
| brb Bend release bend

************************************
Добавлено: 02.06.2015
Другие материалы по этой песне:
  • Аккорды и текст

Страница создана 02.06.2015
http://primanota.ru/tulus/suatu-hari-di-bulan-juni-chords.htm
Привет, Гость.
Предлагаем пройти революционный курс по гитаре.
Подарок от PrimaNota.Ru, забирай!