PrimaNota.ru - самый крупный в мире бесплатный архив песенных текстов, аккордов, табулатур и нот


Tue Loup - Quittons La France - таба, видео

Регистрация Запомнить меня
Войти через:  Facebook Google Twitter Vk Yandex Mail.ru

Tue Loup - Quittons La France - таба, видео

Печатать
Просмотров: 105
-------------------------------------------------------------------------------
                             Tue Loup - Quittons la France
-------------------------------------------------------------------------------
Album : la Bancale
Tempo : 75
Tabbed by:newg
E-mail:gwendal.mollo@orange.fr

Capo 2


   E5                C/G      B7  
e|-----------------|------------------|
B|-----------------|----------------4-|        Riff 1
G|-----------------|--------------2---|
D|-----2---3---2---|-----2------4-----|
A|---2---2---2---0-|---3---0--2-------|
E|-0---------------|-3----------------| 

   E5                Gsus4    F#madd11 
e|-----------------|------------------|
B|-----------------|------------------|        Riff 2
G|-----------------|--------------2-0-|
D|-----2---3---2---|-----0------4-----|
A|---2---2---2---0-|---3---0--2-------|
E|-0---------------|-3----------------|


Intro :
Riff 1 x3
Riff 2


E5                 C/G           B7             E5 
  A ton crochet du droit pile en travers de mes dents
                              Gsus4            F#madd11        E5 
A tes poches trouées de bonne foi en l'absence de tes sous-vêtements

[Riff 1 + 2]

E5                              C/G           B7                   E5 
   C'est sûr il n'y en eu pas d'autres a oser les larmes du bonheur
                   Gsus4             F#madd11          E5 
Et je resterai l'apôtre de celle qui fait l'amour en pleurs

[Riff 1 + 2]

E5                         Gsus4    F#madd11 
  Et quand traînée dans la boue
E5                          Gsus4    F#madd11
  Tu persistes à rendre les coups
E5                          Gsus4    F#madd11
  Face au jugement de ces ordures
E5                          C/G      B7  B7   B7  
  Je brandis ton cœur trop pur


   C#m              A
Et même si tu t'éclates la gueule
    G#               C#m
Sur des chemins trop tortueux
   C#m       A
Tu seras toujours plus belle
    G#             G#
Que tous ces déjà vieux


    C#m                 A
Qui puent l'ordre et la bienséance
G#                       C#m
Tellement sûr d'eux dans leurs démence
C#m                 A
Avant de crever les points liés
    G#             
viens poupée quittons la France 

C#m A G# C#m
C#m A G# A5 G# A5 G# B

[Riff 1 + 2] x4   
B7 B7 F#madd11 E5
Добавлено: 24.08.2013
Другие материалы по этой песне:
  • Аккорды и текст

Страница создана 24.08.2013
http://primanota.ru/tue-loup/quittons-la-france-chords.htm
Привет, Гость.
Предлагаем пройти революционный курс по гитаре.
Подарок от PrimaNota.Ru, забирай!