PrimaNota.ru - самый крупный в мире бесплатный архив песенных текстов, аккордов, табулатур и нот


Tue Loup - Gisant - аккорды и текст, видео

Регистрация Запомнить меня
Войти через:  Facebook Google Twitter Vk Yandex Mail.ru

Tue Loup - Gisant - аккорды и текст, видео

Печатать
Просмотров: 94
Авторы музыки: Xavier Plumas
Авторы текста: Xavier Plumas
Gisant
Tue Loup
-------------------------------------------------------------------------------
                             Tue Loup - Gisant
-------------------------------------------------------------------------------

Album : Le Lac De Fish
Tempo : 90
Tabbed by:newg
E-mail:gwendal.mollo@orange.fr

Eadd9 : 022102

Intro :
e |------------------------|------------------------|
B |------------------------|------------------------|
G |------------------------|------------------------|
D |----------2s4-----------|--2s4-2-0---------------|
A |----4--5----------------|----------4-------------|
E |--2---------------------|------------------------|

e |------------------------|------------------------|
B |------------------------|------------------------|
G |--------------1---------|------------------------|
D |----------2s4-----------|-----4------------------|
A |----4--5----------------|--5----------------5----|
E |--2---------------------|------------------------|

Riff :
     F#m                       F#m
e |-------------------------|-----------------------|
B |-------------------------|-----------------------|
G |---------------------3---|-----------------------|
D |--------4----1s2-2/4-----|--------4----1s2-2-1---|
A |----2h4---4--------------|----2h4---4----------2-|
E |--2----------------------|--2--------------------|


Riff x2

F#m
Comme ses bras les branches de saule
s'élance portés par ses épaules
Riff x1
F#m
si loin de lui comme une souche
pierre tombale, ultime couche
Riff x1

refrain:
B               D#m
Gisant , il est gisant x2
B         G#m     E    Eadd9
délaissé, apaisé

Riff x1
F#m
Comme son sang l'eau du ruisseau
réduit son débit sous sa peau
Riff x1
F#m
si loin d'elle grand fleuve insolent
maîtresse du flux et du tourment
Riff x1

refrain:
B               D#m
Gisant , il est gisant x2
B        G#m     E    Eadd9
délesté, apaisé

   Solo    F#m

refrain:
B               D#m
Gisant , il est gisant x2
B        G#m     E    Eadd9
déserté, apaisé


Riff x2

F#m
Comme son âme la queue de l'orage
s'éloigne dans un dernier souffle
Riff x1
F#m
alors le silence fait rage
sur cet empire qui s'écroule

Outro:
e |------------------|------------------|
B |------------------|------------------|
G |--------3---------|------------------|
D |----------4-------|--------2---------|
A |----2h4-----------|----2h4---4-------|
E |--2---------------|--2---------------| x3

e |------------------|
B |------------------|
G |------------------|
D |--------2----4----|
A |----2h4-----------|
E |--2---------------|
Добавлено: 28.09.2013
Другие материалы по этой песне:
  • Аккорды и текст

Страница создана 28.09.2013
http://primanota.ru/tue-loup/gisant-chords.htm
Привет, Гость.
Предлагаем пройти революционный курс по гитаре.
Подарок от PrimaNota.Ru, забирай!