PrimaNota.ru - самый крупный в мире бесплатный архив песенных текстов, аккордов, табулатур и нот


Tue Loup - Elias - аккорды и текст, видео

Регистрация Запомнить меня
Войти через:  Facebook Google Twitter Vk Yandex Mail.ru

Tue Loup - Elias - аккорды и текст, видео

Печатать
Просмотров: 84
Авторы музыки: Tue-Loup
Авторы текста: Xavier Plumas
Elias
Tue Loup
                -------------------------------------------------------------------------------
                             Tue Loup - Elias
-------------------------------------------------------------------------------
Tempo : 120
Tabbed by:newg
E-mail:gwendal.mollo@orange.fr
 Note :
(Capo on 5 can be easily : Dm->Am, F->C...)
(all the chords is bar chords : Dm x57765...)


Riff intro : 
e|-------------|
B|-------------|
G|-------------|
D|-------------|
A|-------------|
E|-10-10-10-10-|  x4

e|----------------------------|-------------------------8--|
B|--10h9---------------10--9--|--10h9----------------9-----|
G|-------10h9h7--7-9-10-------|-------10h9h7--7-9-10-------|
D|----------------------------|----------------------------|
A|----------------------------|----------------------------|
E|----------------------------|----------------------------|

e|---------8------------8----------------------------------------|
B|------9----9--------9------------------------------------------|
G|---10--------10---9--------------------------------------------|
D|-------------------------------------12----------------12------|
A|---------------------------------12-------12-------12-----12---|
E|----------------------------8/10---------------10--------------|  x2

Dm 

Dm                          A#
Elias alone is watching the sun
A      Dm
by the window
Dm                            A#
Elias alone is looking at the flies
A      Dm
On the window
     F                 C
When she passed in the light
       Dm
Almost naked
F            C
eating a banana
         Dm
just for pleasure


          G  F#m A#  Dm
she said           my man

          G  F#m A#   Dm
she said           my thing
          G  F#m A#  Am
she said



Riff intro x1 



 Dm

Dm                          A#
Elias alone is watching the moon
A          Dm
around the house
Dm                              A# A
Elias alone is listening to the spiders
       Dm
in the house
     F               C
When she left in the light
         Dm
too much dressed
F                 C
By this beautiful night
         Dm
just for pleasure


          G  F#m A#  Dm
she said           no man

          G  F#m A#   Dm
she said           no thing
          G  F#m A#  Am
she said


Solo : F C Dm Dm x4

Outro : Riff x1
Добавлено: 30.09.2013
Другие материалы по этой песне:
  • Аккорды и текст

Страница создана 30.09.2013
http://primanota.ru/tue-loup/elias-chords.htm
Привет, Гость.
Предлагаем пройти революционный курс по гитаре.
Подарок от PrimaNota.Ru, забирай!